Oops, an error
Loading. Please wait.

The Little Record Store Just Around The Corner chords

16 views 3 this week
no commentswrite comment
1 2 3 4 5
3 more votes to show rating
add to favorites
×
Save as Personal and add changes to this tab that will be seen only by you. Learn more ›
×
You can save this tab as Personal to edit and correct it or add notes. All changes will be seen only by you. Learn more »
launch autoscroll
font size
0
reset
transpose
0
reset
display chords
guitar tuner
edit
Autoscroll
slow
fast
+/-
esc
set tempo
stop
Strumming
There is no strumming pattern for this song yet. and get +5 IQ
[Riff]
e|-----------------------------------------------|
B|-----------------------------------------------|
G|-----------------------------------------------|
D|-----------------------------------------------|
A|----------------2--2--2-5--7-------------------|
E|----0--0-0-3-5----------------3--3-3-5-3--0----| (x2)

[Verse 1]
            Em                        D
Went to the little record store just around the corner
C                  Em
(Hey, what did you get?)
  Em                         D
I got the Count Five and the 8 Eyed Spy
C               Em
(What'd you get next?)
          Em                      D
I got the Rolling Stones with the picture sleeve
C                 Em
(How good does it get?)
Em                  D
Mitch Ryder and the Memphis Experiment?!
C                Em
(You can get it again)

[Riff]

[Verse 2]
          Em              D
If you're ever alone just wandering around
C                Em
(Anywhere in the world)
       Em                         D
If you listen to the sound of the rock and roll
C                      Em
(You're all welcome in here)
           Em                       D
'Cause the Cramps are the Cramps in any language
C                Em
(So don't you forget)
       Em                        D
At the little record store just around the corner
C              Em
(What's coming next?) What's coming next?

[Riff]
e|-----------------------------------------------|
B|-----------------------------------------------|
G|-----------------------------------------------|
D|-----------------------------------------------|
A|----------------2--2--2-5--7-------------------|
E|----0--0-0-3-5----------------3--3-3-5-3--0----| (x2)

[Riff 2]
e|-----------------------------------------------|
B|-----------------------------------------------|
G|-----------------------------------------------|
D|----------------2--2--2-5--7-------------------|
A|----0--0-0-3-5----------------3--3-3-5-3--0----| (x2)
E|-----------------------------------------------|

[Verse 3]
            Em                D
It's like a time machine, I remember that cover
C               Em
(It's taking me back)
Em                    D
Two for a dollar? You gotta be kidding!
C                Em
(It's time to go back)
Em  D
??? something new
C                     Em
(Spend the day if you can)
       Em                        D
At the little record store just around the corner
C              Em
(What's coming next?) What's coming next?

[Riff]
e|-----------------------------------------------|
B|-----------------------------------------------|
G|-----------------------------------------------|
D|-----------------------------------------------|
A|----------------2--2--2-5--7-------------------|
E|----0--0-0-3-5----------------3--3-3-5-3--0----| (x2)

[Riff 2]
e|-----------------------------------------------|
B|-----------------------------------------------|
G|-----------------------------------------------|
D|----------------2--2--2-5--7-------------------|
A|----0--0-0-3-5----------------3--3-3-5-3--0----| (x2)
E|-----------------------------------------------|

            
            
Suggest correction
Creating personal tab
Creating personal tab
You can edit any tab online and save it as your Personal.

You can edit, replace or remove any tab part or add personal notes – all changes will be seen only by you.

Personal tabs can be accessed anytime from any device, even offline.
Learn more »
Give kudos to tab author, rate the tab!
1 2 3 4 5
comments
print report bad tab
guest
You may want to rate the tab now too:
select rating
Wanna post a correction for this tab? Suggest correction