Oops, an error
Loading. Please wait.

Aftershock bass

version 1
version 1

Whole song

Interactive

86 views 1 this week
no commentswrite comment
1 2 3 4 5
3 more votes to show rating
add to favorites
×
Save as Personal and add changes to this tab that will be seen only by you. Learn more ›
×
You can save this tab as Personal to edit and correct it or add notes. All changes will be seen only by you. Learn more »
launch autoscroll
font size
0
reset
guitar tuner
edit
Autoscroll
slow
fast
+/-
esc
set tempo
stop
Aftershock
Drop Dead
Drop Dead
Kwonnie - kwonnie@live.com

Bass Guitar



     W                   W                   E  E  Q.      E  E  E   
F||-------------------|-------------------|-------------------------|
C||-------------------|-------------------|-------------------------|
G||-------------------|-------------------|-------------------------|
C||-------------------|-------------------|--2--0--3\------0--2--0--|


  E  E  Q.      E  E  E     E  E  Q.      E  E  E     Q     Q     H          
-------------------------|-------------------------|------------------------|
--------3\---------------|-------------------------|--3\--------------------|
-------------------------|----------------------3--|--------5\--------------|
--2--0----------0--2--0--|--2--0--3\------0--2-----|--------------7\--------|


  E  E  Q.      E  E  E     E  E  Q.      E  E  E     E  E  Q.      E  E  E   
-------------------------|-------------------------|-------------------------|
-------------------------|--------3\---------------|-------------------------|
-------------------------|-------------------------|----------------------3--|
--2--0--3\------0--2--0--|--2--0----------0--2--0--|--2--0--3\------0--2-----|


  Q     Q     H            Q    H        Q       Q    H        Q     
------------------------|---------------------|---------------------|
--3\--------------------|---------------------|---------------------|
--------5\--------------|---------------------|---------------------|
--------------7\--------|--0-------------0----|--0-------------0----|


  Q    H.              H.           Q       Q    H        Q     
--------------------|--------------------|---------------------|
--------------------|--------------------|---------------------|
--------------------|--------------------|---------------------|
--0-----------------|---------------8----|--0-------------0----|


  Q    H        Q       Q    H.              H.           Q     
---------------------|--------------------|--------------------|
---------------------|--------------------|--------------------|
---------------------|--------------------|--------------------|
--0-------------0----|--0-----------------|---------------8----|


  E  E  H        E  E     E  E  H        E  E     E  E  H        E  E   
-----------------------|-----------------------|-----------------------|
-----------------------|-----------------------|-----------------------|
-----------------------|-----------------------|-----------------------|
--0--0-----------0-----|--0--0-----------0-----|--0--0-----------0-----|


  E  E  Q    E  E  Q       E  E  H        E  E     E  E  H        E  E   
------------------------|-----------------------|-----------------------|
------------------------|-----------------------|-----------------------|
------------------------|-----------------------|-----------------------|
--0--0-------5--5-------|--0--0-----------0-----|--0--0-----------0-----|


  E  E  H        E  E     E  E  E  E  E  E  Q      
-----------------------|--------------------------|
-----------------------|--------------------------|
-----------------------|--------------------------|
--0--0-----------0-----|--0--x--0--x--0--x--5\----|


  S E  E  S S S  Q      E   E     E  Q    Q    E  Q     
-------------------------------|-----------------------|
-------------------------------|-----------------------|
----------------12\------------|-----------------------|
--0-0--0--0-0-0--------12--12--|--8--8----8----8--8----|


   E   Q     Q     E   Q       E  E  E  S E  S E   Q      
----------------------------|----------------------------|
----------------------------|---------------------12\----|
----------------------------|----------------------------|
--10--10----10----10--10----|--L--7--7--7-7--7-7---------|


  S E  E  S S S  Q      E   E     E  Q    Q    E  Q     
-------------------------------|-----------------------|
-------------------------------|-----------------------|
----------------12\------------|-----------------------|
--0-0--0--0-0-0--------12--12--|--8--8----8----8--8----|


   E   Q     Q     E   Q       E  E  E  E  E  E   Q      
----------------------------|---------------------------|
----------------------------|---------------------------|
----------------------------|---------------------------|
--10--10----10----10--10----|--0--0--0--0--0--0--12\----|


  E  S E  S E  E  E  E  E     E  Q    Q    E  Q       E  E  E  S E  S E  Q     
---------------------------|-----------------------|--------------------------|
---------------------------|-----------------------|--------------------------|
---------------------------|-----------------------|--------3--3-3--3-3-------|
--0--0-0--0-0--8--7--5--5--|--L--5----5----5--5----|--3--3---------------7----|


  Q    E  E  Q    E  E     E  S E  S E  E  E  E  E     E  Q    Q    E  Q     
------------------------|---------------------------|-----------------------|
------------------------|---------------------------|-----------------------|
-------7--5-------------|---------------------------|-----------------------|
--7----------5----0--5--|--0--0-0--0-0--8--7--5--5--|--L--5----5----5--5----|


  E  E  E  S E  S E  Q       Q    E  E  Q     Q       E  E  E  E  E  E  E  E   
--------------------------|------------------------|--------------------------|
--------------------------|------------------------|--------------------------|
--------3--3-3--3-3-------|-------7--5-------------|--------------------------|
--3--3---------------7----|--7----------5----10----|--0--0--0--0--0--0--0--5--|


  E  E  E  E  E  E  E  E     E  E  E  E  E  E  E  E   
--------------------------|--------------------------|
--------------------------|--------------------------|
--------------------------|--------------------------|
--5--5--5--5--5--5--5--3--|--3--3--3--3--3--3--3--7--|


  E   E  Q      Q     Q       E  E  E  E  E  E  E  E   
---------------------------|--------------------------|
---------------------------|--------------------------|
---------------------------|--------------------------|
--L--22--L\----10----12----|--0--0--0--0--0--0--0--5--|


  E  E  E  E  E  E  E  E     E  E  E  E  E  E  E  E   
--------------------------|--------------------------|
--------------------------|--------------------------|
--------------------------|--------------------------|
--5--5--5--5--5--5--5--3--|--3--3--3--3--3--3--3--7--|


  E   E  Q      Q     Q       E  E  E  E  E  E  E  E   
---------------------------|--------------------------|
---------------------------|--------------------------|
---------------------------|--------------------------|
--L--22--L\----10----12----|--0--0--0--0--0--0--0--5--|


  E  E  E  E  E  E  E  E     E  E  E  E  E  E  E  E   
--------------------------|--------------------------|
--------------------------|--------------------------|
--------------------------|--------------------------|
--5--5--5--5--5--5--5--3--|--3--3--3--3--3--3--3--7--|


  E   E  Q      Q     Q       E  E  E  E  E  E  E  E   
---------------------------|--------------------------|
---------------------------|--------------------------|
---------------------------|--------------------------|
--L--22--L\----10----12----|--0--0--0--0--0--0--0--5--|


  E  E  E  E  E  E  E  E     E  E  E  E  E  E  E  E   
--------------------------|--------------------------|
--------------------------|--------------------------|
--------------------------|--------------------------|
--5--5--5--5--5--5--5--3--|--3--3--3--3--3--3--3--7--|


  E   E  Q      Q     Q       Q    H        Q       Q    H        Q     
---------------------------|---------------------|---------------------|
---------------------------|---------------------|---------------------|
---------------------------|---------------------|---------------------|
--L--22--L\----10----12----|--0-------------0----|--0-------------0----|


  Q    H.              H.           Q       Q    H        Q     
--------------------|--------------------|---------------------|
--------------------|--------------------|---------------------|
--------------------|--------------------|---------------------|
--0-----------------|---------------8----|--0-------------0----|


  Q    H        Q       Q    H.              H.           Q     
---------------------|--------------------|--------------------|
---------------------|--------------------|--------------------|
---------------------|--------------------|--------------------|
--0-------------0----|--0-----------------|---------------8----|


  Q    H        Q       Q    H        Q       Q    H.            
---------------------|---------------------|--------------------|
---------------------|---------------------|--------------------|
---------------------|---------------------|--------------------|
--0-------------0----|--0-------------0----|--0-----------------|


  H.           Q       Q    H        Q       Q    H        Q     
--------------------|---------------------|---------------------|
--------------------|---------------------|---------------------|
--------------------|---------------------|---------------------|
---------------8----|--0-------------0----|--0-------------0----|


  Q    H.              H.           Q       E  E  E  E   Q     E  E   
--------------------|--------------------|---------------------------|
--------------------|--------------------|---------------------------|
--------------------|--------------------|---------------------------|
--0-----------------|---------------8----|--0--0-----0--12\----0--0--|


  E  E  E  E   Q     E  E     E  E  E  E   Q     E  E   
---------------------------|---------------------------|
---------------------------|---------------------------|
---------------------------|---------------------------|
--0--0-----0--12\----0--0--|--0--0-----0--12\----0--0--|


                   S                                 
  E  E  Q    E  E  Q       E  E  E  E   Q     E  E   
------------------------|---------------------------|
-------------------5----|---------------------------|
------------------------|---------------------------|
--0--0-------5--5-------|--0--0-----0--12\----0--0--|


  E  E  E  E   Q     E  E     E  E  E  E   Q     E  E   
---------------------------|---------------------------|
---------------------------|---------------------------|
---------------------------|---------------------------|
--0--0-----0--12\----0--0--|--0--0-----0--12\----0--0--|


  Q    Q    E   E   Q       S E  E  S S S  Q      E   E   
-------------------------|-------------------------------|
------------7p--0h--7----|-------------------------------|
-------------------------|----------------12\------------|
--0----------------------|--0-0--0--0-0-0--------12--12--|


  E  Q    Q    E  Q        E   Q     Q     E   Q     
-----------------------|----------------------------|
-----------------------|----------------------------|
-----------------------|----------------------------|
--8--8----8----8--8----|--10--10----10----10--10----|


  E  E  E  S E  S E   Q        S E  E  S S S  Q      E   E   
----------------------------|-------------------------------|
---------------------12\----|-------------------------------|
----------------------------|----------------12\------------|
--L--7--7--7-7--7-7---------|--0-0--0--0-0-0--------12--12--|


  E  Q    Q    E  Q        E   Q     Q     E   Q       E  E  H.            
-----------------------|----------------------------|---------------------|
-----------------------|----------------------------|---------------------|
-----------------------|----------------------------|---------------------|
--8--8----8----8--8----|--10--10----10----10--10----|--0--0---------------|


  E  S E  S E  E  E  E  E     E  Q    Q    E  Q       E  E  E  S E  S E  Q     
---------------------------|-----------------------|--------------------------|
---------------------------|-----------------------|--------------------------|
---------------------------|-----------------------|--------3--3-3--3-3-------|
--0--0-0--0-0--8--7--5--5--|--L--5----5----5--5----|--3--3---------------7----|


  Q    E  E  Q    E  E     E  S E  S E  E  E  E  E     E  Q    Q    E  Q     
------------------------|---------------------------|-----------------------|
------------------------|---------------------------|-----------------------|
-------7--5-------------|---------------------------|-----------------------|
--7----------5----0--5--|--0--0-0--0-0--8--7--5--5--|--L--5----5----5--5----|


  E  E  E  S E  S E  Q       Q    E  E  Q     Q       E  S E  S E  E  E  E  E   
--------------------------|------------------------|---------------------------|
--------------------------|------------------------|---------------------------|
--------3--3-3--3-3-------|-------7--5-------------|---------------------------|
--3--3---------------7----|--7----------5----10----|--0--0-0--0-0--8--7--5--5--|


  E  Q    Q    E  Q       E  E  E  S E  S E  Q       Q    E  E  Q    E  E   
-----------------------|--------------------------|------------------------|
-----------------------|--------------------------|------------------------|
-----------------------|--------3--3-3--3-3-------|-------7--5-------------|
--L--5----5----5--5----|--3--3---------------7----|--7----------5----0--5--|


  E  S E  S E  E  E  E  E     E  Q    Q    E  Q       E  E  E  S E  S E  Q     
---------------------------|-----------------------|--------------------------|
---------------------------|-----------------------|--------------------------|
---------------------------|-----------------------|--------3--3-3--3-3-------|
--0--0-0--0-0--8--7--5--5--|--L--5----5----5--5----|--3--3---------------7----|


  Q    E  E  Q     Q       E  E  E  E  E  E  E  E     E  E  E  E  E  E  E  E   
------------------------|--------------------------|--------------------------|
------------------------|--------------------------|--------------------------|
-------7--5-------------|--------------------------|--------------------------|
--7----------5----10----|--0--0--0--0--0--0--0--5--|--5--5--5--5--5--5--5--3--|


  E  E  E  E  E  E  E  E     E   E  Q      Q     Q     
--------------------------|---------------------------|
--------------------------|---------------------------|
--------------------------|---------------------------|
--3--3--3--3--3--3--3--7--|--L--22--L\----10----12----|


  E  E  E  E  E  E  E  E     E  E  E  E  E  E  E  E   
--------------------------|--------------------------|
--------------------------|--------------------------|
--------------------------|--------------------------|
--0--0--0--0--0--0--0--5--|--5--5--5--5--5--5--5--3--|


  E  E  E  E  E  E  E  E     E   E  Q      Q     Q     
--------------------------|---------------------------|
--------------------------|---------------------------|
--------------------------|---------------------------|
--3--3--3--3--3--3--3--7--|--L--22--L\----10----12----|


  E  E  E  E  E  E  E  E     E  E  E  E  E  E  E  E   
--------------------------|--------------------------|
--------------------------|--------------------------|
--------------------------|--------------------------|
--0--0--0--0--0--0--0--5--|--5--5--5--5--5--5--5--3--|


  E  E  E  E  E  E  E  E     E   E  Q      Q     Q     
--------------------------|---------------------------|
--------------------------|---------------------------|
--------------------------|---------------------------|
--3--3--3--3--3--3--3--7--|--L--22--L\----10----12----|


  E  E  E  E  E  E  E  E     E  E  E  E  E  E  E  E   
--------------------------|--------------------------|
--------------------------|--------------------------|
--------------------------|--------------------------|
--0--0--0--0--0--0--0--5--|--5--5--5--5--5--5--5--3--|


  E  E  E  E  E  E  E  E     E   E  Q      Q     Q     
--------------------------|---------------------------|
--------------------------|---------------------------|
--------------------------|---------------------------|
--3--3--3--3--3--3--3--7--|--L--22--L\----10----12----|


  E  E  E  E  E  E  E  E     E  E  E  E  E  E  E  E   
--------------------------|--------------------------|
--------------------------|--------------------------|
--------------------------|--------------------------|
--0--0--0--0--0--0--0--0--|--5--5--5--5--5--5--5--5--|


  E  E  E  E  E  E  E  E     E  E  E  E  E  E  E  E   
--------------------------|--------------------------|
--------------------------|--------------------------|
--------------------------|--------------------------|
--3--3--3--3--3--3--3--3--|--7--7--7--7--7--7--7--7--|


  E  E  E  E  E  E  E  E     E  E  E  E  E  E  E  E   
--------------------------|--------------------------|
--------------------------|--------------------------|
--------------------------|--------------------------|
--0--0--0--0--0--0--0--0--|--5--5--5--5--5--5--5--5--|


  E  E  E  E  E  E  E  E     E  E  E  E  E  E  E  E   
--------------------------|--------------------------|
--------------------------|--------------------------|
--------------------------|--------------------------|
--3--3--3--3--3--3--3--3--|--7--7--7--7--7--7--7--7--|


  E  E  E  E  E  E  E  E     E  E  E  E  E  E  E  E   
--------------------------|--------------------------|
--------------------------|--------------------------|
--------------------------|--------------------------|
--0--0--0--0--0--0--0--0--|--5--5--5--5--5--5--5--5--|


  E  E  E  E  E  E  E  E     E  E  E  E  E  E  E  E   
--------------------------|--------------------------|
--------------------------|--------------------------|
--------------------------|--------------------------|
--3--3--3--3--3--3--3--3--|--7--7--7--7--7--7--7--7--|


  E  E  E  E  E  E  E  E     E  E  E  E  E  E  E  E   
--------------------------|--------------------------|
--------------------------|--------------------------|
--------------------------|--------------------------|
--0--0--0--0--0--0--0--0--|--5--5--5--5--5--5--5--5--|


  E  E  E  E  E  E  E  E     E  E  E  E  E  E  E  E     W                 
--------------------------|--------------------------|-------------------|
--------------------------|--------------------------|-------------------|
--------------------------|--------------------------|-------------------|
--3--3--3--3--3--3--3--3--|--7--7--7--7--7--7--7--7--|-------------------|


  W                   W                   W                 
-------------------|-------------------|-------------------|
-------------------|-------------------|-------------------|
-------------------|-------------------|-------------------|
-------------------|-------------------|--8----------------|


  Q    H        Q       Q    H        Q       Q    H.            
---------------------|---------------------|--------------------|
---------------------|---------------------|--------------------|
---------------------|---------------------|--------------------|
--0-------------0----|--0-------------0----|--0-----------------|


  H.           Q       Q    H        Q       Q    H        Q     
--------------------|---------------------|---------------------|
--------------------|---------------------|---------------------|
--------------------|---------------------|---------------------|
---------------8----|--0-------------0----|--0-------------0----|


  Q    H.              H        E  E  E  E    
--------------------|-----------------------||
--------------------|-----------------------||
--------------------|-----------------------||
--0-----------------|--------------0--0-----||




Duration Legend
---------------
W - whole
H - half
Q - quarter
E - 8th
S - 16th
T - 32nd
X - 64th
. - note dotted
|-n-|  - n-tuplets


Tablature Legend
----------------
L - tied note
x - dead note
g - grace note
(n) - ghost note
> - accentuded note
NH - natural harmonic
AH - artificial harmonic
TH - tapped harmonic
SH - semi harmonic
PH - pitch harmonic
h - hammer on
p - pull off
b - bend
br - bendRelease
pb - preBend
pbr - preBendRelease
brb - bendReleaseBend
\n/ - tremolo bar dip
\n - tremolo bar dive
-/n - tremolo bar Release up
/n\ - tremolo bar inverted dip
/n - tremolo bar return
-\n - tremolo bar Release down
S - shift slide
s - legato slide
/ -  slide into from below or out of upwards
\ -  slide into from above or out of downwards
~ - vibrato
W - wide vibrato
tr - trill
TP - tremolo picking
T - tapping
S - slap
P - pop
< - fade in
^ - brush up
v - brush down

            
            
Suggest correction
Creating personal tab
Creating personal tab
You can edit any tab online and save it as your Personal.

You can edit, replace or remove any tab part or add personal notes – all changes will be seen only by you.

Personal tabs can be accessed anytime from any device, even offline.
Learn more »
Give kudos to tab author, rate the tab!
1 2 3 4 5
comments
print report bad tab
guest
You may want to rate the tab now too:
select rating
Wanna post a correction for this tab? Suggest correction