Oops, an error
Loading. Please wait.

Drop Dead bass

version 1
version 1

Whole song

Interactive

93 views 1 this week
no commentswrite comment
1 2 3 4 5
3 more votes to show rating
add to favorites
×
Save as Personal and add changes to this tab that will be seen only by you. Learn more ›
×
You can save this tab as Personal to edit and correct it or add notes. All changes will be seen only by you. Learn more »
launch autoscroll
font size
0
reset
guitar tuner
edit
Autoscroll
slow
fast
+/-
esc
set tempo
stop
Drop Dead
Drop Dead
Drop Dead
Kwonnie - kwonnie@live.com

Bass Guitar



     W                   S S S S E  E  S S S S E  E   
F||-------------------|------------------------------|
C||-------------------|------------------------------|
G||-------------------|------------------------------|
C||-------------------|--0-3-0-0-0--2--0-3-0-0-0--2--|


  S S S S E  E  S S S S S S S S    S S S S E  E  S S S S E  E   
--------------------------------|------------------------------|
--------------------------------|------------------------------|
--------------------------------|------------------------------|
--0-3-0-0-0--2--7-5-3-0-5-3-2-0-|--0-3-0-0-0--2--0-3-0-0-0--2--|


  S S S S E  E  S S S S S S S S    S S S S E  E  S S S S E  E   
--------------------------------|------------------------------|
--------------------------------|------------------------------|
------------------------------0-|------------------------------|
--0-3-0-0-0--2--0-2-3-5-2-3-5---|--0-3-0-0-0--2--0-3-0-0-0--2--|


  S S S S E  E  S S S S S S S S    S S S S E  E  S S S S E  E   
--------------------------------|------------------------------|
--------------------------------|------------------------------|
--------------------------------|------------------------------|
--0-3-0-0-0--2--7-5-3-0-5-3-2-0-|--0-3-0-0-0--2--0-3-0-0-0--2--|


  S S S S E  E  S S S S S S S S    W                 
--------------------------------|-------------------|
--------------------------------|-------------------|
------------------------------0-|-------------------|
--0-3-0-0-0--2--0-2-3-5-2-3-5---|-------------------|


  S S S S S S S S S S S S S S S S    S S S S S S S E  S S S S S S S  
----------------------------------|---------------------------------|
----------------------------------|---------------------------------|
----------------------------------|---------------------------------|
--0-3-0-0-0-2-0-5-0-0-0-0-0-0-0-0-|--0-3-0-0-0-2-0-7--5-3-2-0-3-2-0-|


  S S S S S S S S S S S S S S S S    S S S S S S S E  S S S S S S S  
----------------------------------|---------------------------------|
----------------------------------|---------------------------------|
----------------------------------|---------------------------------|
--0-3-0-0-0-2-0-5-0-0-0-0-0-0-0-0-|--0-3-0-0-0-2-0-8--7-5-3-5-3-2-0-|


  S S S S S S S S S S S S S S S S    S S S S S S S E  S S S S S S S  
----------------------------------|---------------------------------|
----------------------------------|---------------------------------|
----------------------------------|---------------------------------|
--0-3-0-0-0-2-0-5-0-0-0-0-0-0-0-0-|--0-3-0-0-0-2-0-7--5-3-2-0-3-2-0-|


  S S S S S S S S S S S S S S S S    S S S S S S S S E.  E.  E   
----------------------------------|-----------------------------|
----------------------------------|-----------------------------|
----------------------------------|-----------------------------|
--0-3-0-0-0-2-0-5-0-0-0-0-0-0-0-0-|--0-3-0-0-0-2-0-0-8---7---5--|


  S S E  S S E  S S E  S S E     S S E  S S E  S S E  S S E   
------------------------------|------------------------------|
------------------------------|------------------------------|
------------------------------|------------------------------|
--0-0-0--0-0-0--0-0-0--0-0-0--|--0-0-0--0-0-0--0-0-0--0-0-0--|


                               |--3--|       |--3--|        
  S S E  S S E  S S E  Q       E  E  E  Q    E  E  E  Q     
----------------------------|------------------------------|
----------------------------|------------------------------|
----------------------------|------------------------------|
--0-0-0--0-0-0--0-0-0--3----|--0--0--0-------0--0--0-------|


  S S E  S S E  S S E  S S E     S S E  S S E  S S E  S S E   
------------------------------|------------------------------|
------------------------------|------------------------------|
------------------------------|------------------------------|
--2-2-2--2-2-2--2-2-2--2-2-2--|--2-2-2--2-2-2--2-2-2--2-2-2--|


                               |--3--|       |--3--|        
  S S E  S S E  S S E  Q       E  E  E  Q    E  E  E  Q     
----------------------------|------------------------------|
----------------------------|------------------------------|
----------------------------|------------------------------|
--2-2-2--2-2-2--2-2-2--7----|--0--0--0-------0--0--0-------|


  E  E  Q    E  E  Q       E  E  Q    Q    Q       E  E  Q    E  E  Q     
------------------------|-----------------------|------------------------|
------------------------|-----------------------|------------------------|
------------------------|-----------------------|------------------------|
--7--7-------7--7-------|--7--7-------7----8----|--7--7-------7--7-------|


  E  E  Q    Q     Q       S S E  S S E  S S E  S S E   
------------------------|------------------------------|
------------------------|------------------------------|
------------------------|------------------------------|
--7--7-------7----10----|--0-0-0--0-0-0--0-0-0--0-0-0--|


  S S E  S S E  S S E  S S E     S S E  S S E  S S E  Q     
------------------------------|----------------------------|
------------------------------|----------------------------|
------------------------------|----------------------------|
--0-0-0--0-0-0--0-0-0--0-0-0--|--0-0-0--0-0-0--0-0-0--3----|


  |--3--|       |--3--|                                       
  E  E  E  Q    E  E  E  Q       S S E  S S E  S S E  S S E   
------------------------------|------------------------------|
------------------------------|------------------------------|
------------------------------|------------------------------|
--0--0--0-------0--0--0-------|--2-2-2--2-2-2--2-2-2--2-2-2--|


  S S E  S S E  S S E  S S E     S S E  S S E  S S E  Q     
------------------------------|----------------------------|
------------------------------|----------------------------|
------------------------------|----------------------------|
--2-2-2--2-2-2--2-2-2--2-2-2--|--2-2-2--2-2-2--2-2-2--7----|


  |--3--|       |--3--|                                                         
  E  E  E  Q    E  E  E  Q       E  E  Q    E  E  Q       E  E  Q    Q    Q     
------------------------------|------------------------|-----------------------|
------------------------------|------------------------|-----------------------|
------------------------------|------------------------|-----------------------|
--0--0--0-------0--0--0-------|--7--7-------7--7-------|--7--7-------7----8----|


  E  E  Q    E  E  Q       E  E  Q    Q     Q       E  E  Q    E  E  Q     
------------------------|------------------------|------------------------|
------------------------|------------------------|------------------------|
------------------------|------------------------|------------------------|
--7--7-------7--7-------|--7--7-------7----10----|--7--7-------7--7-------|


  E  E  Q    Q    Q       E  E  Q    E  E  Q       E  E  Q    Q     Q     
-----------------------|------------------------|------------------------|
-----------------------|------------------------|------------------------|
-----------------------|------------------------|------------------------|
--7--7-------7----8----|--7--7-------7--7-------|--7--7-------7----10----|


  W                   W                   S S S S S S S S S S S S S S S S  
-------------------|-------------------|----------------------------------|
-------------------|-------------------|----------------------------------|
-------------------|-------------------|----------------------------------|
--8----------------|--5----------------|--0-0-0---0-0-0-0-0---0-0-0---0-0-|


  S S S S S S S S S S S S S S S S    W                   W                 
----------------------------------|-------------------|-------------------|
----------------------------------|-------------------|-------------------|
----------------------------------|-------------------|-------------------|
--0-0-0---0-0-0-0-0---0-0-0---0-0-|--8----------------|--5----------------|


  S S S S S S S S S S S S S S S S    S S S S S S S S S S S S S S S S  
----------------------------------|----------------------------------|
----------------------------------|----------------------------------|
----------------------------------|----------------------------------|
--0-0-0---0-0-0-0-0---0-0-0---0-0-|--0-0-0---0-0-0-0-0---0-0-0---0-0-|


  W                   S S S S S S S S S S S S S S S S  
-------------------|----------------------------------|
-------------------|----------------------------------|
-------------------|----------------------------------|
-------------------|--0-0-0-0-0---0-0-0-0---0-0---0-0-|


  S S S S S S S S S S S S S S S S    S S S S S S S S S S S S S S S S  
----------------------------------|----------------------------------|
----------------------------------|----------------------------------|
----------------------------------|----------------------------------|
--0-0-0---0-0-0-0---0-0---0-0-0-0-|--0-0-0-0-0---0-0-0-0---0-0---0-0-|


  S S S S S S S S S S S S S S S S    S S S S S S S S S S S S S S S S  
----------------------------------|----------------------------------|
----------------------------------|----------------------------------|
----------------------------------|----------------------------------|
--0-0-0---0-0-0-0---0-0---0-0-0-0-|--0-0-0-0-0---0-0-0-0---0-0---0-0-|


  S S S S S S S S S S S S S S S S    S S S S S S S S S S S S S S S S  
----------------------------------|----------------------------------|
----------------------------------|----------------------------------|
----------------------------------|----------------------------------|
--0-0-0---0-0-0-0---0-0---0-0-0-0-|--0-0-0-0-0---0-0-0-0---0-0---0-0-|


  W                    E   E   E   E   E   E   E   E   
-------------------|----------------------------------|
-------------------|----------------------------------|
-------------------|--------------15--------------13--|
-------------------|--12--12--12------12--12--12------|


   E   E   E   Q     E   E  E     E  E  E   E  E  E  E  E   
-------------------------------|---------------------------|
-------------------------------|---------------------------|
--------------12----10------8--|-----------10-----------8--|
--12--12--12------------12-----|--8--8--8------8--8--8-----|


  E  E  E  Q    E  E  E      E   E   E   E   E   E   E   E   
-------------------------|----------------------------------|
-------------------------|----------------------------------|
-----------7----5--8--7--|--------------15--------------13--|
--8--8--8----------------|--12--12--12------12--12--12------|


   E   E   E   Q     E   E  E     E  E  E   E  E  E  E  E   
-------------------------------|---------------------------|
-------------------------------|---------------------------|
--------------12----10------8--|-----------10-----------8--|
--12--12--12------------12-----|--8--8--8------8--8--8-----|


  E  E  E  Q    E  E  E      E   E   E   E   E   E   E   E   
-------------------------|----------------------------------|
-------------------------|----------------------------------|
-----------7----5--8--7--|--------------15--------------13--|
--8--8--8----------------|--12--12--12------12--12--12------|


   E   E   E   Q     E   E  E     E  E  E   E  E  E  E  E   
-------------------------------|---------------------------|
-------------------------------|---------------------------|
--------------12----10------8--|-----------10-----------8--|
--12--12--12------------12-----|--8--8--8------8--8--8-----|


  E  E  E  Q    E  E  E      E   E   E   E   E   E   E   E   
-------------------------|----------------------------------|
-------------------------|----------------------------------|
-----------7----5--8--7--|--------------15--------------13--|
--8--8--8----------------|--12--12--12------12--12--12------|


   E   E   E   Q     E   E  E     E  E  E   E  E  E  E  E   
-------------------------------|---------------------------|
-------------------------------|---------------------------|
--------------12----10------8--|-----------10-----------8--|
--12--12--12------------12-----|--8--8--8------8--8--8-----|


  E  E  E  Q    Q.        W                   W                 
-----------------------|-------------------|-------------------|
-----------------------|-------------------|-------------------|
-----------7-----------|-------------------|-------------------|
--8--8--8--------------|--8----------------|--5----------------|


  S S S S S S S S S S S S S S S S    S S S S S S S S S S S S S S S S  
----------------------------------|----------------------------------|
----------------------------------|----------------------------------|
----------------------------------|----------------------------------|
--0-0-0---0-0-0-0-0---0-0-0---0-0-|--0-0-0---0-0-0-0-0---0-0-0---0-0-|


  W                   W                   S S S S S S S S S S S S S S S S  
-------------------|-------------------|----------------------------------|
-------------------|-------------------|----------------------------------|
-------------------|-------------------|----------------------------------|
--8----------------|--5----------------|--0-0-0---0-0-0-0-0---0-0-0---0-0-|


  S S S S S S S S S S S S S S S S    W                   Q    E  E  E  Q    E   
----------------------------------|-------------------|------------------------|
----------------------------------|-------------------|------------------------|
----------------------------------|-------------------|------------------------|
--0-0-0---0-0-0-0-0---0-0-0---0-0-|-------------------|--0----0--0--0--0----0--|


  E  E  E  E  Q    Q       Q    E  E  E  Q    E     E  E  E  E  E  E  Q      
------------------------|------------------------|--------------------------|
------------------------|------------------------|--------------------------|
------------------------|------------------------|--------------------------|
-----0--0-----5----3----|--0----0--0--0--0----0--|-----0--0-----5--5--7\----|


  Q    E  E  E  Q    E     E  E  E  E  Q    Q       Q    E  E  E  Q    E   
------------------------|------------------------|------------------------|
------------------------|------------------------|------------------------|
------------------------|------------------------|------------------------|
--0----0--0--0--0----0--|-----0--0-----5----3----|--0----0--0--0--0----0--|


  E  E  E  E  E  E  Q        W                   W                 
--------------------------|-------------------|-------------------|
--------------------------|-------------------|-------------------|
--------------------------|-------------------|-------------------|
-----0--0-----5--5--7\----|-------------------|-------------------|


                                                     S             
  W                   W                   Q    E  E  E  E  E  E    
-------------------|-------------------|--------------------------|
-------------------|-------------------|-------------8------------|
-------------------|-------------------|----------------5--5--L\--|
-------------------|-------------------|--0----7--5---------------|


                                        S             
  E  Q    E  E  S E  S E     Q    E  E  E  E  E  E    
--------------------------|--------------------------|
--------------------------|-------------8------------|
----------------5-5-------|----------------5--5--L\--|
--0--7----5--8-------5-5--|--0----7--5---------------|


                                        S             
  E  Q    E  E  S E  S E     Q    E  E  E  E  E  E    
--------------------------|--------------------------|
--------------------------|-------------8------------|
----------------5-5-------|----------------5--5--L\--|
--0--7----5--8-------5-5--|--0----7--5---------------|


                                        S             
  E  Q    E  E  S E  S E     Q    E  E  E  E  E  E    
--------------------------|--------------------------|
--------------------------|-------------8------------|
----------------5-5-------|----------------5--5--L\--|
--0--7----5--8-------5-5--|--0----7--5---------------|


  E  Q    E  E  S E  S E     Q    E  E  Q.     E     Q    E  E  Q.     E   
--------------------------|-----------------------|-----------------------|
--------------------------|-----------------------|-----------------------|
----------------5-5-------|-----------------------|-----------------------|
--0--7----5--8-------5-5--|--0----0--0--0------0--|--L----0--0--0------0--|


                                          |--3--|                           
  Q    E  E  Q.     E     Q    E  E  Q    E  E  E     Q    E  E  Q.     E   
-----------------------|---------------------------|-----------------------|
-----------------------|---------------------------|-----------------------|
-----------------------|---------------------------|-----------------------|
--L----0--0--0------0--|--L----0--0--0----0--0--0--|--0----0--0--0------0--|


                                                                  |--3--|   
  Q    E  E  Q.     E     Q    E  E  Q.     E     Q    E  E  Q    E  E  E   
-----------------------|-----------------------|---------------------------|
-----------------------|-----------------------|---------------------------|
-----------------------|-----------------------|---------------------------|
--L----0--0--0------0--|--L----0--0--0------0--|--L----0--0--0----0--0--0--|


  W                   W                   W                 
-------------------|-------------------|-------------------|
-------------------|-------------------|-------------------|
-------------------|-------------------|-------------------|
--0----------------|--L----------------|--L----------------|


  W                  
-------------------||
-------------------||
-------------------||
--L----------------||




Duration Legend
---------------
W - whole
H - half
Q - quarter
E - 8th
S - 16th
T - 32nd
X - 64th
. - note dotted
|-n-|  - n-tuplets


Tablature Legend
----------------
L - tied note
x - dead note
g - grace note
(n) - ghost note
> - accentuded note
NH - natural harmonic
AH - artificial harmonic
TH - tapped harmonic
SH - semi harmonic
PH - pitch harmonic
h - hammer on
p - pull off
b - bend
br - bendRelease
pb - preBend
pbr - preBendRelease
brb - bendReleaseBend
\n/ - tremolo bar dip
\n - tremolo bar dive
-/n - tremolo bar Release up
/n\ - tremolo bar inverted dip
/n - tremolo bar return
-\n - tremolo bar Release down
S - shift slide
s - legato slide
/ -  slide into from below or out of upwards
\ -  slide into from above or out of downwards
~ - vibrato
W - wide vibrato
tr - trill
TP - tremolo picking
T - tapping
S - slap
P - pop
< - fade in
^ - brush up
v - brush down

            
            
Suggest correction
Creating personal tab
Creating personal tab
You can edit any tab online and save it as your Personal.

You can edit, replace or remove any tab part or add personal notes – all changes will be seen only by you.

Personal tabs can be accessed anytime from any device, even offline.
Learn more »
Give kudos to tab author, rate the tab!
1 2 3 4 5
comments
print report bad tab
guest
You may want to rate the tab now too:
select rating
Wanna post a correction for this tab? Suggest correction