Oops, an error
Loading. Please wait.

Killswitch bass

version 1
version 1

Whole song

Interactive

51 views 1 this week
no commentswrite comment
1 2 3 4 5
3 more votes to show rating
add to favorites
×
Save as Personal and add changes to this tab that will be seen only by you. Learn more ›
×
You can save this tab as Personal to edit and correct it or add notes. All changes will be seen only by you. Learn more »
launch autoscroll
font size
0
reset
guitar tuner
edit
Autoscroll
slow
fast
+/-
esc
set tempo
stop
Killswitch
Drop Dead
Drop Dead
Kwonnie - kwonnie@live.com

Bass Guitar



     E  S E  S S S E  S  E  S S S    E  S E  S S S  E  S E  S S S  
F||-------------------------------|-------------------------------|
C||-------------------------------|-------------------------------|
G||-------------------------------|-------------------------------|
C||--3--0-0--0-0-0-0--0-12--0-0-0-|--3--0-0--0-0-0-12--0-0--0-0-0-|


  E  S E  S S S E  S  E  S S S    E  S E  S S S S S S S S S S S  
-------------------------------|--------------------------------|
-------------------------------|--------------------------------|
-------------------------------|------------------------3-------|
--3--0-0--0-0-0-0--0-12--0-0-0-|--3--0-0--0-0-0-5-3-2-0---5-3-2-|


  E  S E  S S S E  S  E  S S S    E  S E  S S S  E  S E  S S S  
-------------------------------|-------------------------------|
-------------------------------|-------------------------------|
-------------------------------|-------------------------------|
--3--0-0--0-0-0-0--0-12--0-0-0-|--3--0-0--0-0-0-12--0-0--0-0-0-|


  E  S E  S S S E  S  E  S S S    E  S S S S S S S S S S S S S S  
-------------------------------|---------------------------------|
-------------------------------|---------------------------------|
-------------------------------|-----------------3---5-3-0-------|
--3--0-0--0-0-0-0--0-12--0-0-0-|--3--0-0-5-3-2-0---2-------5-3-2-|


  W                   W                   E  E  S S S E  S E  S S S S  
-------------------|-------------------|------------------------------|
-------------------|-------------------|------------------------------|
-------------------|-------------------|------------------------------|
-------------------|-------------------|--8--7--0-0-0-0--0-0--0-0-0-0-|


  S S E  S S S E  S E  S S S S    E  E  S S S E  S E  S S S S  
-------------------------------|------------------------------|
-------------------------------|------------------------------|
-------------------------------|------------------------------|
--L-0-0--0-0-0-0--0-0--0-0-0-0-|--8--7--0-0-0-0--0-0--0-0-0-0-|


  S S E  S S S S S S S S S S S S    E  E  S S S E  S E  S S S S  
---------------------------------|------------------------------|
---------------------------------|------------------------------|
---------------------------------|------------------------------|
--L-0-0--0-0-0-0-5-3-2-0-5-3-2-5-|--8--7--0-0-0-0--0-0--0-0-0-0-|


  S S E  S S S E  S E  S S S S    E  E  S S S E  S E  S S S S  
-------------------------------|------------------------------|
-------------------------------|------------------------------|
-------------------------------|------------------------------|
--L-0-0--0-0-0-0--0-0--0-0-0-0-|--8--7--0-0-0-0--0-0--0-0-0-0-|


  S S E  S S S S S S S S S S S S    E  E  S S S E  S  E  S S  E      
---------------------------------|----------------------------------|
---------------------------------|----------------------------------|
-------------------------3-1-0-1-|----------------------------------|
--L-0-0--5-3-2-0-5-3-2-5---------|--3--0--0-0-0-0--0-12--0-0-12pbr--|


  E  S S S S S S S S S S S S S S    E  E  S S S E  S  E  S S  E   
---------------------------------|-------------------------------|
---------------------------------|-------------------------------|
-----------------------7---------|-------------------------------|
--L--0-0-0---0-0-8-7-5---8-7-5-7-|--3--0--0-0-0-0--0-12--0-0-12--|


  S S S S  E   S S S S S S S S S S    E  E  S S S E  S  E  S S  E      
-----------------------------------|----------------------------------|
-----------------------------------|----------------------------------|
-------------------------8-7-5-----|----------------------------------|
--0-0-0-0-12b--0-0-8-7-5-------7-8-|--3--0--0-0-0-0--0-12--0-0-12pbr--|


  E  S S S S S S S S S S S S S S    E  E  S S S E  S  E  S S  E   
---------------------------------|-------------------------------|
---------------------------------|-------------------------------|
-----------------------7---------|-------------------------------|
--L--0-0-0---0-0-8-7-5---8-7-5-7-|--3--0--0-0-0-0--0-12--0-0-12--|


  S S S S  E   S S S S S S S S S S    E  E  S S S E  S E  S S S S  
-----------------------------------|------------------------------|
-----------------------------------|------------------------------|
---------------------8-7-5-----5-7-|------------------------------|
--0-0-0-0-12b--8-7-5-------7-8-----|--8--7--0-0-0-0--0-0--0-0-0-0-|


  S S E  S S S E  S E  S S S S    E  E  S S S E  S E  S S S S  
-------------------------------|------------------------------|
-------------------------------|------------------------------|
-------------------------------|------------------------------|
--L-0-0--0-0-0-0--0-0--0-0-0-0-|--8--7--0-0-0-0--0-0--0-0-0-0-|


  S S E  S S S S S S S S S S S S    E  E  S S S E  S E  S S S S  
---------------------------------|------------------------------|
---------------------------------|------------------------------|
---------------------------------|------------------------------|
--L-0-0--0-0-0-0-5-3-2-0-5-3-2-5-|--8--7--0-0-0-0--0-0--0-0-0-0-|


  S S E  S S S E  S E  S S S S    E  E  S S S E  S E  S S S S  
-------------------------------|------------------------------|
-------------------------------|------------------------------|
-------------------------------|------------------------------|
--L-0-0--0-0-0-0--0-0--0-0-0-0-|--8--7--0-0-0-0--0-0--0-0-0-0-|


  S S E  S S S S S S S S S S S S    E  E  S S S E  S  E  S S  E      
---------------------------------|----------------------------------|
---------------------------------|----------------------------------|
-------------------------3-1-0-1-|----------------------------------|
--L-0-0--5-3-2-0-5-3-2-5---------|--3--0--0-0-0-0--0-12--0-0-12pbr--|


  E  S S S S S S S S S S S S S S    E  E  S S S E  S  E  S S  E   
---------------------------------|-------------------------------|
---------------------------------|-------------------------------|
-----------------------7---------|-------------------------------|
--L--0-0-0---0-0-8-7-5---8-7-5-7-|--3--0--0-0-0-0--0-12--0-0-12--|


  S S S S  E   S S S S S S S S S S    E  E  S S S E  S  E  S S  E      
-----------------------------------|----------------------------------|
-----------------------------------|----------------------------------|
-------------------------8-7-5-----|----------------------------------|
--0-0-0-0-12b--0-0-8-7-5-------7-8-|--3--0--0-0-0-0--0-12--0-0-12pbr--|


  E  S S S S S S S S S S S S S S    E  E  S S S E  S  E  S S  E   
---------------------------------|-------------------------------|
---------------------------------|-------------------------------|
-----------------------7---------|-------------------------------|
--L--0-0-0---0-0-8-7-5---8-7-5-7-|--3--0--0-0-0-0--0-12--0-0-12--|


  S S S S  E   S S S S S S S S S S    E.  E.   E.  E.  E  E   
-----------------------------------|-------------------------|
-----------------------------------|----------10----------7--|
---------------------8-7-5-----5-7-|--8---7--------7---8-----|
--0-0-0-0-12b--8-7-5-------7-8-----|-------------------------|


   E.  E.  E.  E.   E  E     E.  E.   E.  E.  E  E      E.  E.  E.   E.  E  E   
--------------------------|-------------------------|--------------------------|
--10-------------------7--|----------10----------7--|--10-----------10---8--7--|
-------8---7---8---10-----|--8---7--------7---8-----|-------8---7--------------|
--------------------------|-------------------------|--------------------------|


  E.  E.   E.  E.  E  E      E.  E.  E.  E.   E  E     E.  E.   E.  E.  E  E   
-------------------------|--------------------------|-------------------------|
----------10----------7--|--10-------------------7--|----------10----------7--|
--8---7--------7---8-----|-------8---7---8---10-----|--8---7--------7---8-----|
-------------------------|--------------------------|-------------------------|


   E.  E.  S S S S E  E  S S    E  S E  S S S E  S  E  S S S  
-----------------------------|-------------------------------|
--10-------------------------|-------------------------------|
-------8---------------------|-------------------------------|
-----------0-0-0-0-0--0--0-0-|--3--0-0--0-0-0-0--0-12--0-0-0-|


  E  S E  S S S  E  S E  S S S    E  S E  S S S E  S  E  S S S  
-------------------------------|-------------------------------|
-------------------------------|-------------------------------|
-------------------------------|-------------------------------|
--3--0-0--0-0-0-12--0-0--0-0-0-|--3--0-0--0-0-0-0--0-12--0-0-0-|


  E  S E  S S S S S S S S S S S    E  S E  S S S E  S  E  S S S  
--------------------------------|-------------------------------|
--------------------------------|-------------------------------|
------------------------3-------|-------------------------------|
--3--0-0--0-0-0-5-3-2-0---5-3-2-|--3--0-0--0-0-0-0--0-12--0-0-0-|


  E  S E  S S S  E  S E  S S S    E  S E  S S S E  S  E  S S S  
-------------------------------|-------------------------------|
-------------------------------|-------------------------------|
-------------------------------|-------------------------------|
--3--0-0--0-0-0-12--0-0--0-0-0-|--3--0-0--0-0-0-0--0-12--0-0-0-|


  E  S S S S S S S S S S S S S S    S S H        S S E  S S  
---------------------------------|--------------------------|
---------------------------------|--------------------------|
-----------------3---5-3-0-------|--------------------------|
--3--0-0-5-3-2-0---2-------5-3-2-|--0-0----------0-0----0-0-|


  S S Q.     S S S S S S S S    S S Q.     S S S S E  S S  
-----------------------------|----------------------------|
-----------------------------|----------------------------|
-----------------------------|----------------------------|
--0-0--------0-0---0-0---0-0-|--0-0--------0-0-0-0----0-0-|


  S S S E  S S S S S S S S S S S    S S H        S S E  S S  
---------------------------------|--------------------------|
---------------------------------|--------------------------|
---------------------------------|--------------------------|
--3-0-0-0--0-0-0-5-0-0-0-5-3-2-3-|--0-0----------0-0----0-0-|


  S S Q.     S S S S S S S S    S S Q.     S S S S E  S S  
-----------------------------|----------------------------|
-----------------------------|----------------------------|
-----------------------------|----------------------------|
--0-0--------0-0---0-0---0-0-|--0-0--------0-0-0-0----0-0-|


  S S S E  S S S S S S S  S S S S    S S H        S S E  S S  
----------------------------------|--------------------------|
----------------------------------|--------------------------|
----------------------------------|--------------------------|
--3-0-0-0--0-0-0-5-3-2-0-10-8-7-8-|--0-0----------0-0----0-0-|


  S S Q.     S S S S S S S S    S S Q.     S S S S E  S S  
-----------------------------|----------------------------|
-----------------------------|----------------------------|
-----------------------------|----------------------------|
--0-0--------0-0---0-0---0-0-|--0-0--------0-0-0-0----0-0-|


  E  S S E  S S S S S S S S S S    S S H        S S E  S S  
--------------------------------|--------------------------|
--------------------------------|--------------------------|
------------------------3-1-0-1-|--------------------------|
--3--0-0-3--0-0-7-5-3-0---------|--0-0----------0-0----0-0-|


  S S Q.     S S S S S S S S    S S Q.     S S S S E  S S  
-----------------------------|----------------------------|
-----------------------------|----------------------------|
-----------------------------|----------------------------|
--0-0--------0-0---0-0---0-0-|--0-0--------0-0-0-0----0-0-|


  E  S S S S E  E  S S S S E     E.  E.   E.  E.  E  E   
------------------------------|-------------------------|
------------------------------|----------10----------7--|
------------------------------|--8---7--------7---8-----|
--3--3-3-3-3-3--5--5-5-5-5-5--|-------------------------|


   E.  E.  E.  E.   E  E     E.  E.   E.  E.  E  E      E.  E.  E.   E.  E  E   
--------------------------|-------------------------|--------------------------|
--10-------------------7--|----------10----------7--|--10-----------10---8--7--|
-------8---7---8---10-----|--8---7--------7---8-----|-------8---7--------------|
--------------------------|-------------------------|--------------------------|


  E.  E.   E.  E.  E  E      E.  E.  E.  E.   E  E     E.  E.   E.  E.  E  E   
-------------------------|--------------------------|-------------------------|
----------10----------7--|--10-------------------7--|----------10----------7--|
--8---7--------7---8-----|-------8---7---8---10-----|--8---7--------7---8-----|
-------------------------|--------------------------|-------------------------|


   E.  E.  E.   E.  E  E     E.  E.   E.  E.  E  E      E.  E.  E.  E.   E  E   
--------------------------|-------------------------|--------------------------|
--10-----------10---8--7--|----------10----------7--|--10-------------------7--|
-------8---7--------------|--8---7--------7---8-----|-------8---7---8---10-----|
--------------------------|-------------------------|--------------------------|


  E.  E.   E.  E.  E  E      E.  E.  E.   E.  E  E     E.  E.   E.  E.  E  E   
-------------------------|--------------------------|-------------------------|
----------10----------7--|--10-----------10---8--7--|----------10----------7--|
--8---7--------7---8-----|-------8---7--------------|--8---7--------7---8-----|
-------------------------|--------------------------|-------------------------|


   E.  E.  E.  E.   E  E     E.  E.   E.  E.  E  E      E.  E.  E.   E.  E  E   
--------------------------|-------------------------|--------------------------|
--10-------------------7--|----------10----------7--|--10-----------10---8--7--|
-------8---7---8---10-----|--8---7--------7---8-----|-------8---7--------------|
--------------------------|-------------------------|--------------------------|


  E.  E.  E.  E.  E  E     E.  E.  E.  E.  E  E     E.  E.  E  E.  E.  E   
------------------------|------------------------|------------------------|
------------------------|------------------------|------------------------|
------------------------|------------------------|------------------------|
--0---0---0---0---0--0--|--3---3---3---3---3--3--|--5---5---5--5---5---5--|


  E  E  E  E   E.   E.  E     E.  E.  E.  E.  E  E     E.  E.  E.  E.  E  E   
---------------------------|------------------------|------------------------|
---------------------------|------------------------|------------------------|
---------------------------|------------------------|------------------------|
--7--7--7--7--10---10---8--|--0---0---0---0---0--0--|--3---3---3---3---3--3--|


  E.  E.  E  E.  E.  E     E  E  E  E   E.   E.  E     E.  E.  E.  E.  E  E   
------------------------|---------------------------|------------------------|
------------------------|---------------------------|------------------------|
------------------------|---------------------------|------------------------|
--5---5---5--5---5---5--|--7--7--7--7--10---10---8--|--0---0---0---0---0--0--|


  E.  E.  E.  E.  E  E     E.  E.  E  E.  E.  E     E  E  E  E   E.   E.  E   
------------------------|------------------------|---------------------------|
------------------------|------------------------|---------------------------|
------------------------|------------------------|---------------------------|
--3---3---3---3---3--3--|--5---5---5--5---5---5--|--7--7--7--7--10---10---8--|


  E.  E.  E.  E.  E  E     E.  E.  E.  E.  E  E     E.  E.  E  E.  E.  E   
------------------------|------------------------|------------------------|
------------------------|------------------------|------------------------|
------------------------|------------------------|------------------------|
--0---0---0---0---0--0--|--3---3---3---3---3--3--|--5---5---5--5---5---5--|


  E  E  E  E   E.   E.  E     E  E  E  E  E  E  E  E   
---------------------------|--------------------------|
---------------------------|--------------------------|
---------------------------|--1--1--1--0--0--0--------|
--7--7--7--7--10---10---8--|--------------------5--5--|


  E  E  E  E  E  E  E  E     E  E  E  E  E  E  E  E   
--------------------------|--------------------------|
--------------------------|--------------------------|
--------------------------|--1--1--1--0--0--0--1--1--|
--3--3--3--3--3--3--3--3--|--------------------------|


  E  E  E  E  E  E  E  E     E  E  E  E  E  E  E  E   
--------------------------|--------------------------|
--------------------------|--------------------------|
--3--3--3--3--3--3--3--3--|--1--1--1--0--0--0--------|
--------------------------|--------------------5--5--|


  E  E  E  E  E  E  E  E     E  E  E  E  E  E  E  E   
--------------------------|--------------------------|
--------------------------|--------------------------|
--------------------------|--1--1--1--0--0--0--1--1--|
--3--3--3--3--3--3--3--3--|--------------------------|


  E  E  E  E  E  E  E  E     E  E  E  E  E  E  E  E   
--------------------------|--------------------------|
--0--0--0--0--0--0--0--0--|--------------------------|
--------------------------|--1--1--1--0--0--0--------|
--------------------------|--------------------5--5--|


  E  E  E  E  E  E  E  E     E  E  E  E  E  E  E  E   
--------------------------|--------------------------|
--------------------------|--------------------------|
--------------------------|--1--1--1--0--0--0--1--1--|
--3--3--3--3--3--3--3--3--|--------------------------|


  E  E  E  E  E  E  E  E     E  E  E  E  E  E  E  E   
--------------------------|--------------------------|
--------------------------|--------------------------|
--3--3--3--3--3--3--3--3--|--1--1--1--0--0--0--------|
--------------------------|--------------------5--5--|


  E  E  E  E  E  E  E  E     E  E  E  E  E  E  E  E   
--------------------------|--------------------------|
--------------------------|--------------------------|
--------------------------|--1--1--1--0--0--0--1--1--|
--3--3--3--3--3--3--3--3--|--------------------------|


  E  E  E  E  E  E  E  E     W                   W                 
--------------------------|-------------------|-------------------|
--0--0--0--0--0--0--0--0--|-------------------|-------------------|
--------------------------|-------------------|-------------------|
--------------------------|-------------------|-------------------|


  W                   W                   W                   W                 
-------------------|-------------------|-------------------|-------------------|
-------------------|-------------------|-------------------|-------------------|
-------------------|-------------------|-------------------|-------------------|
-------------------|-------------------|-------------------|-------------------|


  W                   W                   W                   W                 
-------------------|-------------------|-------------------|-------------------|
-------------------|-------------------|-------------------|-------------------|
-------------------|-------------------|-------------------|-------------------|
-------------------|-------------------|-------------------|-------------------|


  W                   W                   W                   W                 
-------------------|-------------------|-------------------|-------------------|
-------------------|-------------------|-------------------|-------------------|
-------------------|-------------------|-------------------|-------------------|
-------------------|-------------------|-------------------|-------------------|


  W                   W                   W                 
-------------------|-------------------|-------------------|
-------------------|-------------------|-------------------|
-------------------|-------------------|-------------------|
-------------------|-------------------|-------------------|


  W                  
-------------------||
-------------------||
-------------------||
-------------------||




Duration Legend
---------------
W - whole
H - half
Q - quarter
E - 8th
S - 16th
T - 32nd
X - 64th
. - note dotted
|-n-|  - n-tuplets


Tablature Legend
----------------
L - tied note
x - dead note
g - grace note
(n) - ghost note
> - accentuded note
NH - natural harmonic
AH - artificial harmonic
TH - tapped harmonic
SH - semi harmonic
PH - pitch harmonic
h - hammer on
p - pull off
b - bend
br - bendRelease
pb - preBend
pbr - preBendRelease
brb - bendReleaseBend
\n/ - tremolo bar dip
\n - tremolo bar dive
-/n - tremolo bar Release up
/n\ - tremolo bar inverted dip
/n - tremolo bar return
-\n - tremolo bar Release down
S - shift slide
s - legato slide
/ -  slide into from below or out of upwards
\ -  slide into from above or out of downwards
~ - vibrato
W - wide vibrato
tr - trill
TP - tremolo picking
T - tapping
S - slap
P - pop
< - fade in
^ - brush up
v - brush down

            
            
Suggest correction
Creating personal tab
Creating personal tab
You can edit any tab online and save it as your Personal.

You can edit, replace or remove any tab part or add personal notes – all changes will be seen only by you.

Personal tabs can be accessed anytime from any device, even offline.
Learn more »
Give kudos to tab author, rate the tab!
1 2 3 4 5
comments
print report bad tab
guest
You may want to rate the tab now too:
select rating
Wanna post a correction for this tab? Suggest correction