Oops, an error
Loading. Please wait.

Killswitch drums

version 1
version 1

Whole song

Interactive

85 views 1 this week
no commentswrite comment
1 2 3 4 5
3 more votes to show rating
add to favorites
×
Save as Personal and add changes to this tab that will be seen only by you. Learn more ›
×
You can save this tab as Personal to edit and correct it or add notes. All changes will be seen only by you. Learn more »
launch autoscroll
font size
0
reset
guitar tuner
edit
Autoscroll
slow
fast
+/-
esc
set tempo
stop
Author
Difficulty
Killswitch
Drop Dead
Drop Dead
Kwonnie - kwonnie@live.com

Percussion



      E   S  S  S  S  S  S  E   S  S  S  S  S  S  
C||--49--------57----------57--------57----------|
C||--57------------------------------------------|
C||------------------------40-----40-------------|
C||----------------------------------------------|
C||----------------------------------------------|
C||--35--35-35----35-35-35-35--35-35----35-35-35-|


   E   S  S  S  S  S  S  E   S  S  S  S  S  S  
--57--------57----------57-----57-------------|
----------------------------------------------|
------------------------40--------40----40-40-|
----------------------------------------------|
-------------------------------------43-------|
--35--35-35----35-35-35-35--35-35----35-35-35-|


   E   S  S  S  S  S  S  E   S  S  S  S  S  S  
--57--------57----------57--------57----------|
----------------------------------------------|
------------------------40-----40-------------|
----------------------------------------------|
----------------------------------------------|
--35--35-35----35-35-35-35--35-35----35-35-35-|


   E   S  S  S  S  S  S  S  S  S  S  S  S  S  S  
--57--------57----------57----------------------|
------------------------------------------------|
---------------40----40-------40----------40-40-|
------------------------------------------------|
------------------------------------43-41-------|
--35--35-35----35-35-35-35-35-35-35-35-35-35-35-|


   E   S  S  S  S  S  S  E   S  S  S  S  S  S  
--49--------57----------57--------57----------|
--57------------------------------------------|
------------------------40-----40-------------|
----------------------------------------------|
----------------------------------------------|
--35--35-35----35-35-35-35--35-35----35-35-35-|


   E   S  S  S  S  S  S  E   S  S  S  S  S  S  
--57--------57----------57-----57-------------|
----------------------------------------------|
------------------------40--------40----40-40-|
----------------------------------------------|
-------------------------------------43-------|
--35--35-35----35-35-35-35--35-35----35-35-35-|


   E   S  S  S  S  S  S  E   S  S  S  S  S  S  
--57--------57----------57--------57----------|
----------------------------------------------|
------------------------40-----40-------------|
----------------------------------------------|
----------------------------------------------|
--35--35-35----35-35-35-35--35-35----35-35-35-|


   E   S  S  S  S  S  S  S  S  S  S  S  S  S  S     Q     Q     Q     Q     
--57--------57----------57----------------------|--57----46----46----46----|
------------------------------------------------|--------------------------|
---------40----40----40-------40-40-40-40-------|--------------------------|
------------------------------------------------|--------------------------|
------------------------------------------45-45-|--------------------------|
--35--35-35-35-35-35-35-35-35-35-35-35-35-35-35-|--35----------------------|


   Q     Q     E   E   Q        E   E   S  S  S  S  S  S  E   S  S  S  S  
--46----46----46------------|--49------49----------49--------49----------|
----------------------------|--57----------------------------------------|
----------------------40----|----------40--------------------40----------|
----------------------------|--------------------------------------------|
----------------------------|--------------------------------------------|
------------------35--------|--35--35--35-35-35-35----35-35--35-35-35-35-|


   S  S  E   S  S  S  S  S  S  E   S  S  S  S  
--49--------49----------49--------49----------|
----------------------------------------------|
------------40--------------------40----------|
----------------------------------------------|
----------------------------------------43-41-|
-----35-35--35-35-35-35----35-35--35-35-35-35-|


   E   E   S  S  S  S  S  S  E   S  S  S  S  
--49------49----------49--------49----------|
--57----------------------------------------|
----------40--------------------40----------|
--------------------------------------------|
--------------------------------------------|
--35--35--35-35-35-35----35-35--35-35-35-35-|


   S  S  E   S  S  S  S  S  S  S  S  S  S  S  S  
--49--------49----------49----------49----------|
------------------------------------------------|
------------40----------------------40----40-40-|
------------------------------------------------|
------------------------------------------------|
-----35-35--35-35-35-35-35-35-35-35-35-35-35-35-|


   E   E   S  S  S  S  S  S  E   S  S  S  S  
--49------49----------49--------49----------|
--57----------------------------------------|
----------40--------------------40----------|
--------------------------------------------|
--------------------------------------------|
--35--35--35-35-35-35----35-35--35-35-35-35-|


   S  S  E   S  S  S  S  S  S  E   S  S  S  S  
--49--------49----------49--------49----------|
----------------------------------------------|
------------40--------------------40----------|
----------------------------------------------|
----------------------------------------43-41-|
-----35-35--35-35-35-35----35-35--35-35-35-35-|


   E   E   S  S  S  S  S  S  E   S  S  S  S  
--49------49----------49--------49----------|
--57----------------------------------------|
----------40--------------------40----------|
--------------------------------------------|
--------------------------------------------|
--35--35--35-35-35-35----35-35--35-35-35-35-|


   S  S  E   S  S  S  S  S  S  S  S  S  S  S  S  
--49--------49----------49----------------------|
------------------------------------------------|
------------40-------40-------40----40-40-40-40-|
------------------------------------------------|
------------------------------------------------|
-----35-35--35-35-35-35-35-35-35-35-35-35-35-35-|


   E   E   S  S  S  S  S  S  E   S  S  E   
--49------46----------46--------46----49--|
--57--------------------------------------|
----------40----------------40--------40--|
------------------------------------------|
------------------------------------------|
--35--35--35-35-35-35----35-35--35-35-35--|


   E   S  S  E   S  S  S  S  S  S  S  S  S  S  
--46--------46--55----46----55----46----------|
----------------------------------------------|
------------40--------------------40----40-40-|
----------------------------------------------|
----------------------------------------------|
------35-35-35--35-35-35-35-35-35-35-35-35-35-|


   E   E   S  S  S  S  S  S  E   S  S  E   
--46------46----------46--------46--------|
------------------------------------------|
----------40----------------40--------40--|
------------------------------------------|
------------------------------------------|
--35--35--35-35-35-35----35-35--35-35-35--|


   E   S  S  E   S  S  S  S  S  S  S  S  S  S  
--46--------49--------46----------------------|
----------------------------------------------|
------40--------------40----40----40-40-40-40-|
----------------------------------------------|
----------------43-41-------------------------|
------35-35-35--35-35-35-35-35-35-35-35-35-35-|


   E   E   S  S  S  S  S  S  E   S  S  E   
--49------46----------46--------46----49--|
--46--------------------------------------|
----------40----------------40--------40--|
------------------------------------------|
------------------------------------------|
--35--35--35-35-35-35----35-35--35-35-35--|


   E   S  S  E   S  S  S  S  S  S  S  S  S  S  
--46--------46--55----46----55----46----------|
----------------------------------------------|
------------40--------------------40----40-40-|
----------------------------------------------|
----------------------------------------------|
------35-35-35--35-35-35-35-35-35-35-35-35-35-|


   E   E   S  S  S  S  S  S  E   S  S  E   
--46------46----------46--------46--------|
------------------------------------------|
----------40----------------40--------40--|
------------------------------------------|
------------------------------------------|
--35--35--35-35-35-35----35-35--35-35-35--|


   E   S  S  S  S  S  S  S  S  S  S  S  S  S  S  
--46--------------------57----49----------------|
------------------------------------------------|
------40-40-40-40-------40----40----40-40-40-40-|
------------------------------------------------|
------------------43-41----45----43-------------|
------35-35-35-35-35-35-35-35-35-35-35-35-35-35-|


   E   E   S  S  S  S  S  S  E   S  S  S  S  
--49------49----------49--------49----------|
--57----------------------------------------|
----------40--------------------40----------|
--------------------------------------------|
--------------------------------------------|
--35--35--35-35-35-35----35-35--35-35-35-35-|


   S  S  E   S  S  S  S  S  S  E   S  S  S  S  
--49--------49----------49--------49----------|
----------------------------------------------|
------------40--------------------40----------|
----------------------------------------------|
----------------------------------------43-41-|
-----35-35--35-35-35-35----35-35--35-35-35-35-|


   E   E   S  S  S  S  S  S  E   S  S  S  S  
--49------49----------49--------49----------|
--57----------------------------------------|
----------40--------------------40----------|
--------------------------------------------|
--------------------------------------------|
--35--35--35-35-35-35----35-35--35-35-35-35-|


   S  S  E   S  S  S  S  S  S  S  S  S  S  S  S  
--49--------49----------49----------49----------|
------------------------------------------------|
------------40----------------------40----40-40-|
------------------------------------------------|
------------------------------------------------|
-----35-35--35-35-35-35-35-35-35-35-35-35-35-35-|


   E   E   S  S  S  S  S  S  E   S  S  S  S  
--49------49----------49--------49----------|
--57----------------------------------------|
----------40--------------------40----------|
--------------------------------------------|
--------------------------------------------|
--35--35--35-35-35-35----35-35--35-35-35-35-|


   S  S  E   S  S  S  S  S  S  E   S  S  S  S  
--49--------49----------49--------49----------|
----------------------------------------------|
------------40--------------------40----------|
----------------------------------------------|
----------------------------------------43-41-|
-----35-35--35-35-35-35----35-35--35-35-35-35-|


   E   E   S  S  S  S  S  S  E   S  S  S  S  
--49------49----------49--------49----------|
--57----------------------------------------|
----------40--------------------40----------|
--------------------------------------------|
--------------------------------------------|
--35--35--35-35-35-35----35-35--35-35-35-35-|


   S  S  E   S  S  S  S  S  S  S  S  S  S  S  S  
--49--------49----------49----------------------|
------------------------------------------------|
------------40-------40-------40----40-40-40-40-|
------------------------------------------------|
------------------------------------------------|
-----35-35--35-35-35-35-35-35-35-35-35-35-35-35-|


   E   E   S  S  S  S  S  S  E   S  S  E   
--49------46----------46--------46----49--|
--57--------------------------------------|
----------40----------------40--------40--|
------------------------------------------|
------------------------------------------|
--35--35--35-35-35-35----35-35--35-35-35--|


   E   S  S  E   S  S  S  S  S  S  S  S  S  S  
--46--------46--55----46----55----46----------|
----------------------------------------------|
------------40--------------------40----40-40-|
----------------------------------------------|
----------------------------------------------|
------35-35-35--35-35-35-35-35-35-35-35-35-35-|


   E   E   S  S  S  S  S  S  E   S  S  E   
--46------46----------46--------46--------|
------------------------------------------|
----------40----------------40--------40--|
------------------------------------------|
------------------------------------------|
--35--35--35-35-35-35----35-35--35-35-35--|


   E   S  S  E   S  S  S  S  S  S  S  S  S  S  
--46--------49--------46----------------------|
----------------------------------------------|
------40--------------40----40----40-40-40-40-|
----------------------------------------------|
----------------43-41-------------------------|
------35-35-35--35-35-35-35-35-35-35-35-35-35-|


   E   E   S  S  S  S  S  S  E   S  S  E   
--49------46----------46--------46----49--|
--46--------------------------------------|
----------40----------------40--------40--|
------------------------------------------|
------------------------------------------|
--35--35--35-35-35-35----35-35--35-35-35--|


   E   S  S  E   S  S  S  S  S  S  S  S  S  S  
--46--------46--55----46----55----46----------|
----------------------------------------------|
------------40--------------------40----40-40-|
----------------------------------------------|
----------------------------------------------|
------35-35-35--35-35-35-35-35-35-35-35-35-35-|


   E   E   S  S  S  S  S  S  E   S  S  E   
--46------46----------46--------46--------|
------------------------------------------|
----------40----------------40--------40--|
------------------------------------------|
------------------------------------------|
--35--35--35-35-35-35----35-35--35-35-35--|


   E   S  S  S  S  S  S  S  S  S  S  S  S  S  S  
--46--------------------57----49----------------|
------------------------------------------------|
------40-40-40-40-------40----40----40-40-40-40-|
------------------------------------------------|
------------------43-41----45----43-------------|
------35-35-35-35-35-35-35-35-35-35-35-35-35-35-|


   E   E   E   E   S  S  S  S  E   E      E   E   E   E   E   E   E   E   
--49------49------49----------49------|--49------49------49--55--49--55--|
--57----------------------------------|----------------------------------|
------40------40--------------40------|------40------------------40------|
--------------------------------------|----------------------------------|
--------------------------------------|----------------------------------|
--35------35--35--35-35-35-35-----35--|------35------35--35--35------35--|


   E   E   E   E   S  S  S  S  E   E      E   E   E   E   E   E   S  S  S  S  
--49------49------49----------49------|--49------49--55--49--55--------------|
--------------------------------------|--------------------------------------|
------40------40--------------40------|------40------40----------40-40-------|
--------------------------------------|--------------------------------------|
--------------------------------------|--------------------------------43-41-|
--35------35--35--35-35-35-35-----35--|------35------35--35--35--------------|


   E   E   E   E   S  S  S  S  E   E      E   E   E   E   E   E   E   E   
--49------49------49----------49------|--49--55--49--55--52------52------|
--57----------------------------------|----------------------------------|
------40------40--------------40------|------40------------------40------|
--------------------------------------|----------------------------------|
--------------------------------------|----------------------------------|
--35------35--35--35-35-35-35-----35--|------35------35--35--35------35--|


   E   E   E   E   S  S  S  S  E   E      E   E   E   E   E   E   E   S  S  
--49------49------49----------49------|--49------49--46------46------------|
--------------------------------------|------------------------------------|
------40------40--------------40------|------40----------40------40--40-40-|
--------------------------------------|------------------------------------|
--------------------------------------|------------------------------------|
--35------35--35--35-35-35-35-----35--|------35----------------------------|


   E   S  S  S  S  S  S  E   S  S  S  S  S  S  
--49--------57----------57--------57----------|
--57------------------------------------------|
------------------------40-----40-------------|
----------------------------------------------|
----------------------------------------------|
--35--35-35----35-35-35-35--35-35----35-35-35-|


   E   S  S  S  S  S  S  E   S  S  S  S  S  S  
--57--------57----------57-----57-------------|
----------------------------------------------|
------------------------40--------40----40-40-|
----------------------------------------------|
-------------------------------------43-------|
--35--35-35----35-35-35-35--35-35----35-35-35-|


   E   S  S  S  S  S  S  E   S  S  S  S  S  S  
--57--------57----------57--------57----------|
----------------------------------------------|
------------------------40-----40-------------|
----------------------------------------------|
----------------------------------------------|
--35--35-35----35-35-35-35--35-35----35-35-35-|


   E   S  S  S  S  S  S  S  S  S  S  S  S  S  S  
--57--------57----------57----------------------|
------------------------------------------------|
---------------40----40-------40----------40-40-|
------------------------------------------------|
------------------------------------43-41-------|
--35--35-35----35-35-35-35-35-35-35-35-35-35-35-|


   E   S  S  S  S  S  S  E   S  S  S  S  S  S  
--49--------57----------57--------57----------|
--57------------------------------------------|
------------------------40-----40-------------|
----------------------------------------------|
----------------------------------------------|
--35--35-35----35-35-35-35--35-35----35-35-35-|


   E   S  S  S  S  S  S  E   S  S  S  S  S  S  
--57--------57----------57-----57-------------|
----------------------------------------------|
------------------------40--------40----40-40-|
----------------------------------------------|
-------------------------------------43-------|
--35--35-35----35-35-35-35--35-35----35-35-35-|


   E   S  S  S  S  S  S  E   S  S  S  S  S  S  
--57--------57----------57--------57----------|
----------------------------------------------|
------------------------40-----40-------------|
----------------------------------------------|
----------------------------------------------|
--35--35-35----35-35-35-35--35-35----35-35-35-|


   E   S  S  S  S  S  S  S  S  S  S  S  S  S  S  
--57--------57----------57----------------------|
------------------------------------------------|
---------40----40----40-------40-40-40-40-------|
------------------------------------------------|
------------------------------------------45-45-|
--35--35-35-35-35-35-35-35-35-35-35-35-35-35-35-|


   S  E.   Q     E   S  S  E   S  S     S  E.   Q     S  E   S  E   S  S  
--49------52----52--------52--------|--52------52----52--------52--------|
--57--------------------------------|------------------------------------|
----------------40------------------|----------------40------------------|
------------------------------------|------------------------------------|
------------------------------------|------------------------------------|
--35-35-------------35-35-----35-35-|--35-35---------35-35--35-35--35-35-|


   S  E.   Q     S  S  S  S  E   S  S  
--52------52----52----------52--------|
--------------------------------------|
----------------40--------------------|
--------------------------------------|
--------------------------------------|
--35-35---------35-35-35-35-----35-35-|


   S  S  S  S  S  S  S  S  S  S  S  S  S  S  S  S  
--57----------52----------49----------------------|
--------------------------------------------------|
--------------------------40----------40----40-40-|
--------------------------------------------------|
--------------------------------43-41-------------|
--35-35-35-35----35-35-35-35-35-35-35-35-35-35-35-|


   S  E.   Q     E   S  S  E   S  S     S  E.   Q     S  E   S  E   S  S  
--57------52----52--------52--------|--52------52----52--------52--------|
--52--------------------------------|------------------------------------|
----------------40------------------|----------------40------------------|
------------------------------------|------------------------------------|
------------------------------------|------------------------------------|
--35-35-------------35-35-----35-35-|--35-35---------35-35--35-35--35-35-|


   S  E.   Q     S  S  S  S  E   S  S  
--52------52----52----------52--------|
--------------------------------------|
----------------40--------------------|
--------------------------------------|
--------------------------------------|
--35-35---------35-35-35-35-----35-35-|


   S  S  S  S  S  S  S  S  S  S  S  S  S  S  S  S  
--57----------52----------------------------------|
--------------------------------------------------|
-----------------40-40-40-40-------------40-40-40-|
--------------------------------------------------|
-----------------------------47-47-45-45----------|
--35-35-35-35----35-35-35-35-35-35-35-35-35-35-35-|


   S  E.   E   S  S  S  E   S  E   S  S  
--49------52--------52--------52--------|
--57------------------------------------|
--------------------40------------------|
----------------------------------------|
----------------------------------------|
--35-35-------35-35-35-35--35-35--35-35-|


   S  E.   S  S  S  S  S  E   S  E   S  S  
--52------52----------52--------52--------|
------------------------------------------|
----------------------40------------------|
------------------------------------------|
------------------------------------43-41-|
--35-35---35-35-35-35-35-35--35-35--35-35-|


   S  E.   E   S  S  S  E   S  E   S  S  
--52------52--------52--------52--------|
----------------------------------------|
--------------------40------------------|
----------------------------------------|
----------------------------------------|
--35-35-------35-35-35-35--35-35--35-35-|


   E   S  S  E   S  S  E   S  S  E   S  S  
--57--------57--------49--------49--------|
------------------------------------------|
------------40------------------40--40-40-|
------------------------------------------|
------------------------------------------|
--35--35-35-35--35-35-35--35-35-35--35-35-|


   S  E.   E   S  S  S  E   S  E   S  S  
--57------52--------52--------52--------|
--52------------------------------------|
--------------------40------------------|
----------------------------------------|
----------------------------------------|
--35-35-------35-35-35-35--35-35--35-35-|


   S  E.   S  S  S  S  S  E   S  E   S  S  
--52------52----------52--------52--------|
------------------------------------------|
----------------------40------------------|
------------------------------------------|
------------------------------------43-41-|
--35-35---35-35-35-35-35-35--35-35--35-35-|


   S  E.   E   S  S  S  E   S  E   S  S  
--52------52--------52--------52--------|
----------------------------------------|
--------------------40------------------|
----------------------------------------|
----------------------------------45-43-|
--35-35-------35-35-35-35--35-35--35-35-|


   S  S  S  S  S  S  S  S  S  S  S  S  S  S  S  S  
--------------------------------------------------|
--------------------------------------------------|
--40-40-------40-40-40-------40-------40-40-40-40-|
--------------------------------------------------|
--------47-47----------45-45----43-43-------------|
--------------------------------------------------|


   E   E   E   E   S  S  S  S  E   E      E   E   E   E   E   E   E   E   
--49------49------49----------49------|--49------49------49--55--49--55--|
--57----------------------------------|----------------------------------|
------40------40--------------40------|------40------------------40------|
--------------------------------------|----------------------------------|
--------------------------------------|----------------------------------|
--35------35--35--35-35-35-35-----35--|------35------35--35--35------35--|


   E   E   E   E   S  S  S  S  E   E      E   E   E   E   E   E   S  S  S  S  
--49------49------49----------49------|--49------49--55--49--55--------------|
--------------------------------------|--------------------------------------|
------40------40--------------40------|------40------40----------40-40-------|
--------------------------------------|--------------------------------------|
--------------------------------------|--------------------------------43-41-|
--35------35--35--35-35-35-35-----35--|------35------35--35--35--------------|


   E   E   E   E   S  S  S  S  E   E      E   E   E   E   E   E   E   E   
--49------49------49----------49------|--49--55--49--55--52------52------|
--57----------------------------------|----------------------------------|
------40------40--------------40------|------40------------------40------|
--------------------------------------|----------------------------------|
--------------------------------------|----------------------------------|
--35------35--35--35-35-35-35-----35--|------35------35--35--35------35--|


   E   E   E   E   S  S  S  S  E   E   
--49------49------49----------49------|
--------------------------------------|
------40------40--------------40------|
--------------------------------------|
--------------------------------------|
--35------35--35--35-35-35-35-----35--|


   S  S  S  S  S  S  S  S  S  S  S  S  S  S  S  S  
--------------------------------------------------|
--------------------------------------------------|
--40-40-------40-40-------40----------40-40-40-40-|
--------------------------------------------------|
--------48-48-------47-47----45-43-41-------------|
--------------------------------------------------|


   S  S  S  S  S  S  S  S  S  S  S  S  S  S  S  S  
--49----------52----------52----------52----------|
--57----------------------------------------------|
--------40----------40----------------40----------|
--------------------------------------------------|
--------------------------------------------------|
--35-35-35-35-35-35-35-35-35-35-35-35-35-35-35-35-|


   S  S  S  S  S  S  S  S  S  S  S  S  S  S  S  S  
--52----------52----------52----51----52----51----|
--------------------------------------------------|
--------40----------------------------40----------|
--------------------------------------------------|
--------------------------------------------------|
--35-35-35-35-35-35-35-35-35-35-35-35-35-35-35-35-|


   S  S  S  S  S  S  S  S  S  S  S  S  S  S  S  S  
--52----------52----------52----------52----------|
--------------------------------------------------|
--------40----------40----------------40----------|
--------------------------------------------------|
--------------------------------------------------|
--35-35-35-35-35-35-35-35-35-35-35-35-35-35-35-35-|


   S  S  S  S  S  S  S  S  S  S  S  S  S  S  S  S  
--52----------52----51----52----51----------------|
--------------------------------------------------|
--------40----------40----------------40-40-------|
--------------------------------------------------|
--------------------------------------------43-41-|
--35-35-35-35-35-35-35-35-35-35-35-35-35-35-35-35-|


   S  S  S  S  S  S  S  S  S  S  S  S  S  S  S  S  
--57----------52----------52----------52----------|
--52----------------------------------------------|
--------40----------40----------------40----------|
--------------------------------------------------|
--------------------------------------------------|
--35-35-35-35-35-35-35-35-35-35-35-35-35-35-35-35-|


   S  S  S  S  S  S  S  S  S  S  S  S  S  S  S  S  
--52----51----52----51----52----------52----------|
--------------------------------------------------|
--------40----------------------------40----------|
--------------------------------------------------|
--------------------------------------------------|
--35-35-35-35-35-35-35-35-35-35-35-35-35-35-35-35-|


   S  S  S  S  S  S  S  S  S  S  S  S  S  S  S  S  
--52----------52----------52----------------------|
--------------------------------------------------|
--------40----------40----------40-40-------40-40-|
--------------------------------------------------|
--------------------------------------43-43-------|
--35-35-35-35-35-35-35-35-35-35-35-35-35-35-35-35-|


   S  S  S  S  S  S  S  S  S  S  S  S  S  S  S  S  
--------------------------------------------------|
--------------------------------------------------|
--------40-40-------------40----40-40-------40-40-|
--------------------------------------------------|
--47-47-------45-45-43-43----45-------43-43-------|
--35-35-35-35-35-35-35-35-35-35-35-35-35-35-35-35-|


   E.   S  E   S  S  E.   S  E   S  S     E.   S  E   S  S  E.   S  E   S  S  
--49------49--------49------49--------|--49------49--------49------49--------|
--57----------------------------------|--------------------------------------|
--------------------40----------------|--------------------40----------------|
--------------------------------------|--------------------------------------|
--------------------------------------|--------------------------------43-41-|
--35---35-35--35-35-35---35-35--35-35-|--35---35-35--35-35-35---35-35--35-35-|


   E.   S  E   S  S  E.   S  E   S  S     E.   S  E   S  S  E.   S  E   S  S  
--49------49--------49------49--------|--49------49--------49------49--------|
--------------------------------------|--------------------------------------|
--------------------40----------------|--------------------40----------40-40-|
--------------------------------------|--------------------------------------|
--------------------------------------|--------------------------------------|
--35---35-35--35-35-35---35-35--35-35-|--35---35-35--35-35-35---35-35--35-35-|


   E.   S  E   S  S  E.   S  E   S  S     E.   S  E   S  S  E.   S  E   S  S  
--49------49--------49------49--------|--49------49--------49------49--------|
--57----------------------------------|--------------------------------------|
--------------------40----------------|--------------------40----------------|
--------------------------------------|--------------------------------------|
--------------------------------------|--------------------------------43-41-|
--35---35-35--35-35-35---35-35--35-35-|--35---35-35--35-35-35---35-35--35-35-|


   E.   S  E   S  S  E.   S  E   S  S     E.   S  E   S  S  E.   S  E   S  S  
--49------49--------49------49--------|--49------49--------49------49--------|
--------------------------------------|--------------------------------------|
--------------------40----------------|--------------------40---40-----40-40-|
--------------------------------------|--------------------------------------|
--------------------------------------|--------------------------------------|
--35---35-35--35-35-35---35-35--35-35-|--35---35-35--35-35-35---35-35--35-35-|


   |---3---|   |---3---|   |---3---|   |---3---|   
   E   E   E   E   E   E   E   E   E   E   E   E   
--49----------57----------57----------57----------|
--57----------------------------------------------|
--------------40----------------------40----------|
--------------------------------------------------|
--------------------------------------------------|
--35--35--35--35--35--35--35--35--35--35--35--35--|


   |---3---|   |---3---|   |---3---|   |---3---|   
   E   E   E   E   E   E   E   E   E   E   E   E   
--57----------57----------57----------57----------|
--------------------------------------------------|
--40----------40----------40----------40----------|
--------------------------------------------------|
--------------------------------------------------|
--35--35--35--35--35--35--35--35--35--35--35--35--|


   |---3---|   |---3---|   |---3---|   |---3---|   
   E   E   E   E   E   E   E   E   E   E   E   E   
--57----------57----------57----------57----------|
--------------------------------------------------|
--------------40----------------------40----------|
--------------------------------------------------|
--------------------------------------------------|
--35--35--35--35--35--35--35--35--35--35--35--35--|


   |---3---|   |---3---|   |---3---|   |---3---|   
   E   E   E   E   E   E   E   E   E   E   E   E   
--57----------57----------57----------57----------|
--------------------------------------------------|
--------------40----------------------40----------|
--------------------------------------------------|
--------------------------------------------------|
--35--35--35--35--35--35--35--35--35--35--35--35--|


   S  S  S  S  S  S  S  S  S  S  S  S  S  S  S  S  
--49----------57----------57----------57----------|
--57----------------------------------------------|
--------------40----------------------40----40----|
--------------------------------------------------|
--------------------------------------------------|
--35-35-35-35-35-35-35-35-35-35-35-35-35-35-35-35-|


   S  S  S  S  S  S  S  S  S  S  S  S  S  S  S  S  
--57----------57----------57----------57----------|
--------------------------------------------------|
--------------40----------------------40----40-40-|
--------------------------------------------------|
--------------------------------------------------|
--35-35-35-35-35-35-35-35-35-35-35-35-35-35-35-35-|


   S  S  S  S  S  S  S  S  S  S  S  S  S  S  S  S  
--57----------57----------57----------57----------|
--------------------------------------------------|
--------------40----------------------40----40----|
--------------------------------------------------|
--------------------------------------------------|
--35-35-35-35-35-35-35-35-35-35-35-35-35-35-35-35-|


   |--3--|  |--3--|  |--3--|  |--3--|  |--3--|  |--3--|  |--3--|  |--3--|  
   S  S  S  S  S  S  S  S  S  S  S  S  S  S  S  S  S  S  S  S  S  S  S  S  
--------------------------------------------------------------------------|
--------------------------------------------------------------------------|
--40-40-------40-40-------40-40----40-40-40----------40-40-40-40-40-40-40-|
--------------------------------------------------------------------------|
--------47-47-------45-45-------43----------41-41-41----------------------|
--------------------------------------------------------------------------|


   E   E   E   E   E   E   E   E      E   E   E   E   E   E   E   E   
--49------57------57------57------|--57------57------57--52--57--52--|
--57------------------------------|----------------------------------|
------------------40--------------|------------------40--------------|
----------------------------------|----------------------------------|
----------------------------------|----------------------------------|
--35--35--35--35--35--35--35--35--|--35--35--35--35--35--35--35--35--|


   E   E   E   E   E   E   E   E      E   E   E   E   E   E   E   E   
--57------57------57------57------|--57------57--52--57--52--57------|
----------------------------------|----------------------------------|
------------------40--------------|------------------40----------40--|
----------------------------------|----------------------------------|
----------------------------------|----------------------------------|
--35--35--35--35--35--35--35--35--|--35--35--35--35--35--35--35--35--|


   S  S  S  S  E   E   E   E   E   E      E   E   E   E   E   E   E   S  S  
--49----------57------57------57------|--57--52--57--52--57------57--------|
--57----------------------------------|------------------------------------|
----------------------40--------------|------------------40----------------|
--------------------------------------|------------------------------------|
--------------------------------------|------------------------------43-41-|
--35-35-35-35-35--35--35--35--35--35--|--35--35--35--35--35--35--35--35----|


   E   E   E   E   E   E   E   E      E   E   E   E   E   E   S  S  S  S  
--57------57------57------57--52--|--57--52--57--52--57--52--------------|
----------------------------------|--------------------------------------|
------------------40--------------|------------------40------40-40-------|
----------------------------------|--------------------------------------|
----------------------------------|--------------------------------43-41-|
--35--35--35--35--35--35--35--35--|--35--35--35--35--35--35--------------|


   E   E   E   E   E   E   E   E      E   E   E   E   E   E   E   E   
--49------57------57------57------|--57------57------57--52--57--52--|
--57------------------------------|----------------------------------|
------------------40--------------|------------------40--------------|
----------------------------------|----------------------------------|
----------------------------------|----------------------------------|
--35--35--35--35--35--35--35--35--|--35--35--35--35--35--35--35--35--|


   E   E   E   E   E   E   E   E      E   E   E   E   E   E   E   E   
--57------57------57------57------|--57------57--52--57--52--57------|
----------------------------------|----------------------------------|
------------------40--------------|------------------40----------40--|
----------------------------------|----------------------------------|
----------------------------------|----------------------------------|
--35--35--35--35--35--35--35--35--|--35--35--35--35--35--35--35--35--|


   S  S  S  S  E   E   E   E   E   E      E   E   E   E   E   E   E   S  S  
--49----------57------57------57------|--57--52--57--52--57------57--------|
--57----------------------------------|------------------------------------|
----------------------40--------------|------------------40----------------|
--------------------------------------|------------------------------------|
--------------------------------------|------------------------------43-41-|
--35-35-35-35-35--35--35--35--35--35--|--35--35--35--35--35--35--35--35----|


   E   E   E   E   E   E   E   E      E   E   E   E   E   E   S  S  S  S  
--57------57------57------57--52--|--57--52--57------57------------------|
----------------------------------|--------------------------------------|
------------------40--------------|--------------40------40--40-40-40-40-|
----------------------------------|--------------------------------------|
----------------------------------|--------------------------------------|
--35--35--35--35--35--35--35--35--|--35--35--35--35--35--35--------------|


   W                   W                   W                 
--49----------------|-------------------|-------------------|
--57----------------|-------------------|-------------------|
--------------------|-------------------|-------------------|
--------------------|-------------------|-------------------|
--------------------|-------------------|-------------------|
--35----------------|-------------------|-------------------|


  W                   W                   W                   W                 
-------------------|-------------------|-------------------|-------------------|
-------------------|-------------------|-------------------|-------------------|
-------------------|-------------------|-------------------|-------------------|
-------------------|-------------------|-------------------|-------------------|
-------------------|-------------------|-------------------|-------------------|
-------------------|-------------------|-------------------|-------------------|


  W                   W                   W                   W                 
-------------------|-------------------|-------------------|-------------------|
-------------------|-------------------|-------------------|-------------------|
-------------------|-------------------|-------------------|-------------------|
-------------------|-------------------|-------------------|-------------------|
-------------------|-------------------|-------------------|-------------------|
-------------------|-------------------|-------------------|-------------------|


  W                   W                   W                   W                 
-------------------|-------------------|-------------------|-------------------|
-------------------|-------------------|-------------------|-------------------|
-------------------|-------------------|-------------------|-------------------|
-------------------|-------------------|-------------------|-------------------|
-------------------|-------------------|-------------------|-------------------|
-------------------|-------------------|-------------------|-------------------|


  W                   W                   W                  
-------------------|-------------------|-------------------||
-------------------|-------------------|-------------------||
-------------------|-------------------|-------------------||
-------------------|-------------------|-------------------||
-------------------|-------------------|-------------------||
-------------------|-------------------|-------------------||




Duration Legend
---------------
W - whole
H - half
Q - quarter
E - 8th
S - 16th
T - 32nd
X - 64th
. - note dotted
|-n-|  - n-tuplets


Tablature Legend
----------------
27 - High Q
28 - Slap
29 - Scratch Push
30 - Scratch Pull
31 - Sticks
32 - Square Click
33 - Metronome Click
34 - Metronome Bell
35 - Acoustic Bass Drum
36 - Bass Drum 1
37 - Side Stick
38 - Acoustic Snare
39 - Hand Clap
40 - Electric Snare
41 - Low Floor Tom
42 - Closed Hi-Hat
43 - High Floor Tom
44 - Pedal Hi-Hat
45 - Low Tom
46 - Open Hi-Hat
47 - Low-Mid Tom
48 - Hi-Mid Tom
49 - Crash Cymbal I
50 - High Tom
51 - Ride Cymbal 1
52 - Chinese Cymbal
53 - Ride Bell
54 - Tambourine
55 - Splash Cymbal
56 - Cowbell
57 - Crash Cymbal 2
58 - Vibraslap
59 - Ride Cymbal 2
60 - High Bongo
61 - Low Bongo
62 - Mute Hi Conga
63 - Open Hi Conga
64 - Low Conga
65 - High Timbale
66 - Low Timbale
67 - High Agogo
68 - Low Agogo
69 - Cabasa
70 - Maracas
71 - Short Whistle
72 - Long Whistle
73 - Short Guiro
74 - Long Guiro
75 - Claves
76 - High Wood Block
77 - Low Wood Block
78 - Mute Cuica
79 - Open Cuica
80 - Mute Triangle
81 - Open Triangle
82 - Shaker
83 - Jingle Bell
84 - Bell Tree
85 - Castanets
86 - Mute Surdo
87 - Open Surdo

            
            
Suggest correction
Creating personal tab
Creating personal tab
You can edit any tab online and save it as your Personal.

You can edit, replace or remove any tab part or add personal notes – all changes will be seen only by you.

Personal tabs can be accessed anytime from any device, even offline.
Learn more »
Give kudos to tab author, rate the tab!
1 2 3 4 5
comments
print report bad tab
guest
You may want to rate the tab now too:
select rating
Wanna post a correction for this tab? Suggest correction