Oops, an error
Loading. Please wait.

Dressed For Friend Requests bass

version 1
version 1

Whole song

Interactive

2,272 views 1 this week
3 commentsread comments
1 2 3 4 5
2 more votes to show rating
add to favorites
×
Save as Personal and add changes to this tab that will be seen only by you. Learn more ›
×
You can save this tab as Personal to edit and correct it or add notes. All changes will be seen only by you. Learn more »
launch autoscroll
font size
0
reset
guitar tuner
edit
Autoscroll
slow
fast
+/-
esc
set tempo
stop
Author
Difficulty
|--------------------------------------------------|
|--------------------------------------------------|
|--------------------------------------------------|
|-5-00-5-0-5---------------------------------------|

|--------------------------------------------------|
|--------------------------------------------------|
|--------------------------------------------------|
|-0-00000--0-0-0-----------------------------------|
      ^
really fast
|--------------------------------------------------|
|--------------------------------------------------|
|--------------------------------------------------|x5
|-0-00000------------------------------------------|

|--------------------------------------------------|
|--------------------------------------------------|
|--------------------------------------------------|x8
|-000-000-7-0-7-0-7-5h7\8--------------------------|

on that^ part you can do just one 0 instead of 3 really fast if its easier, it still 
pretty much the same.

|--------------------------------------------------|
|--------------------------------------------------|
|--------------------------------------------------|x3
|-000-0--------------------------------------------|

|--------------------------------------------------|
|--------------------------------------------------|
|--------------------------------------------------|
|-0000--0000-0000-0-0-0----------------------------|

|--------------------------------------------------|
|--------------------------------------------------|
|--------------------------------------------------|x6
|-0000-0000-0-0-0----------------------------------|

|--------------------------------------------------|
|--------------------------------------------------|
|--------------------------------------------------|
|-0000-0000----------------------------------------|

|--------------------------------------------------|
|--------------------------------------------------|
|--------------------------------------------------|
|-3333333333333333-1111111111111111----------------|

|-------------------------------------------------------------------|
|-------------------------------------------------------------------|
|-------------------------------------------------------------------|x3
|5555555555555555-7777777777777777-3333333333333333-1111111111111111|

|--------------------------------------------------|
|--------------------------------------------------|
|--------------------------------------------------|
|-0-0-0-0-5h4p0-5h4p0 5h4p0 5h4p0------------------|

|--------------------------------------------------|
|--------------------------------------------------|
|--------------------------------------------------|
|-0-0-0-0-5h4p0-5h4p0-3h2p0-3h2p0------------------|

|--------------------------------------------------|
|--------------------------------------------------|
|--------------------------------------------------|
|-0-0-0-0-5h4p0-5h4p0 5h4p0 5h4p0------------------|

|--------------------------------------------------|
|--------------------------------------------------|
|--------------------------------------------------|
|-0-0-0-0-5h4p0-5h4p0-7h6p0-7h6p0------------------|

|--------------------------------------------------|
|--------------------------------------------------|
|--------------------------------------------------|
|-0-0----------------------------------------------|


my first tab, sorry if it sucks, please rate it so i know how i did.
Suggest correction
Creating personal tab
Creating personal tab
You can edit any tab online and save it as your Personal.

You can edit, replace or remove any tab part or add personal notes – all changes will be seen only by you.

Personal tabs can be accessed anytime from any device, even offline.
Learn more »
Give kudos to tab author, rate the tab!
1 2 3 4 5
comments
print report bad tab
3 comments total.
0 reply
mattyblinkfall 81 Aug 14, 2007 07:07 PM

what tuning is this in...?

+1 reply
tez73x 31 Dec 12, 2007 08:21 AM

drop C,

0 reply
mattyboy77 51 Jun 02, 2008 03:56 PM

that was an accurate tab and all; but if i were you; iwould label the tab parts.

it kinda got annoying having to scroll down and figurte out the verses; good tab by the way.

guest
You may want to rate the tab now too:
select rating
Wanna post a correction for this tab? Suggest correction