Oops, an error
Loading. Please wait.

Dressed For Friend Requests tab

version 2
version 2

Whole song

Interactive

2,765 views 1 this week
1 commentread comment
1 2 3 4 5
x 4
add to favorites
×
Save as Personal and add changes to this tab that will be seen only by you. Learn more ›
×
You can save this tab as Personal to edit and correct it or add notes. All changes will be seen only by you. Learn more »
launch autoscroll
font size
0
reset
how to read this tab
guitar tuner
edit
Autoscroll
slow
fast
+/-
esc
set tempo
stop
----------------------------------------------------------------------------
               Dressed For Friend Requests - Drop Dead, Gorgeous
----------------------------------------------------------------------------

Tabbed by:rockonmetal83
Email:therabbit99999@yahoo.com

The times played on top is for the whole section of the song. The times played 
bottom is just for that riff. I'm also sorry I didn't tab the piano parts out. I'm tired.

Tuning:Drop C (CGCFAD)

Intro - Keyboard

Guitar 1 & 2 - Verse? 1
Played at 0:19-0:37                                                       x3
D|Not on 2nd & 3rd times-------------------------Not on second time--------|
A|\----------/------------------------------------\--------------/---------|
F|-15-1515-15---------Not on 2nd & 3rd times--------15-1515-1515-----------|
C|-19-1919-19--------------\-------/----------------19-1919-1919-----------|
G|---0----0-----0-0-00000---0-0-0-0------0-0-00000----0----0---------------|
C|---0----0-----0-0-00000---0-0-0-0------0-0-00000----0----0---------------|
P.M. .    .     . . .....   . . . .      . . .....    .    .

Guitar 1 & 2 - Chorusy 1
Played at 0:37-0:58                                                       x2
D|------------------------|-----------------------------------------------|
A|------------------------|-----------------------------------------------|
F|------------------------|-----------------------------------------------|
C|------------------------|-----------------------------------------------|
G|-0-0-000-5-5-5-5h8p7h8--|-0-0-000-5-5-5-5h8h10--------------------------|
C|-0-0-000--0-0-0---------|-0-0-000--0-0-0--------------------------------|
P.M. . ...  . . .       x3  . . ....  . . .

OR
                                                                          x2
D|-------------------------|-----------------------------------------------|
A|-------------------------|-----------------------------------------------|
F|---------7-7-7-7-10-9-10-|---------7-7-7-7-10-12-------------------------|
C|---------x-x-x-x-x--x-x--|---------x-x-x-x-x--x--------------------------|
G|-0-0-000-5-5-5-5/8-\7/8--|-0-0-000-5-5-5-5/8-/10-------------------------|
C|-0-0-000--0-0-0----------|-0-0-000--0-0-0--------------------------------|
P.M. . ...  . . .       x3  . . ....  . . .


Guitar 1 & 2 - Bridgey?
Played at 0:58-1:09    x3
D|---------------------|
A|---------------------|
F|--------6~-----------|
C|--------7~-----------|
G|-000-0~-5~-----------|
C|-000-0~--------------|
P.M...

Guitar 1 & 2 - These guys have the stupidest song structures
Played at 1:09-1:29
D|-------------------------------------------------------------------------|
A|-------------------------------------------------------------------------|
F|-------------------------------------------------------------------------|
C|-------------------------------------------------------------------------|
G|-0000-0000-0000-1-1-1--0000-0000-1-1-1--0000-0000-1-1-1--0000-0000-0000--|
C|-0000-0000-0000-0-0-0--0000-0000-0-0-0--0000-0000-0-0-0--0000-0000-0000--|
P.M.... .... .... . . .  .... .... . . .  .... .... . . .  .... .... ....

D|-------------------------------------------------------------------------|
A|-------------------------------------------------------------------------|
F|-------------------------------------------------------------------------|
C|-------------------------------------------------------------------------|
G|-0000-0000-1-1-1--0000-0000-1-1-1--0000-0000-1-1-1--0000-0000------------|
C|-0000-0000-0-0-0--0000-0000-0-0-0--0000-0000-0-0-0--0000-0000------------|
P.M.... .... . . .  .... .... . . .  .... .... . . .  .... ....

Guitar 1 - 2nd Chorus'D?
Played at 1:34-2:09                                                       x4
D|-------------------------------------------------------------------------|
A|-------------------------------------------------------------------------|
F|-------------------------------------------------------------------------|
C|-------------------------------------------------------------------------|
G|-5555555555555555-3333333333333333-00000000000000000000000000000000------|
C|-5555555555555555-3333333333333333-00000000000000000000000000000000------|

Guitar 2 - 2nd Chorus'D?
Played at 1:34-2:09                                                       x4
D|-------------------------------------------------------------------------|
A|-8888888888888888-6666666666666666---------------------------------------|
F|-xxxxxxxxxxxxxxxx-xxxxxxxxxxxxxxxx-77777777777777777777777777777777------|
C|-5555555555555555-3333333333333333-00000000000000000000000000000000------|
G|-------------------------------------------------------------------------|
C|-------------------------------------------------------------------------|

Or if that doesn't sound right then strum  F|7-5-2
                                           C|5-3-0

Guitar 1 & 2 - Lead in to outro
Played at 2:10-2:21
D|---------------------------------|--------------------------------------|
A|---------------------------------|--------------------------------------|
F|---------------------------------|--------------------------------------|
C|---------------------------------|--------------------------------------|
G|-0--000--8p7p5-8p7p5-8p7p5-8p7p5-|-0-000--8p7p5-8p7p5-7p5p3-7p5p3-------|
C|-0--000--------------------------|-0-000--------------------------------|
P.M   ...                              ...

D|-----------------------------------|
A|-----------------------------------|
F|-----------------------------------|
C|-----------------------------------|
G|-0--000--8p7p5-8p7p5-10p8p7-10p8p7-|
C|-0--000----------------------------|
P.M   ...

Guitar 1 - Outro
Played at 2:21-2:36
D|--------|
A|--------|
F|--------|
C|--------|
G|-8p7p5--|   As many times as neccessary
C|--------|

Guitar 2 - Outro
Played at 2:21-2:36              
D|-----------------------------------|-------------------------------------|
A|-----------------------------------|-------------------------------------|
F|-----------------------------------|-------------------------------------|
C|----------7p5p3-7p5p3-7p5p3-7p5p3--|------7p5p3-7p5p3-5p3p2-5p3p2--------|
G|-0--000----------------------------|-0-000-----------------------0-000---|
C|-0--000----------------------------|-0-000-----------------------0-000---|
P.M   ...                                ...                         ...

D|-----------------------------------|
A|-----------------------------------|
F|-----------------------------------|
C|----------7p5p3-7p5p3-8p7p5-8p7p5--|
G|-0--000----------------------------|
C|-0--000----------------------------|
P.M   ...

End on:
D|-------|
A|-------|
F|-------|
C|-------|
G|-0--000|
C|-0--000|
P.M   ...

End o' song.

| /  slide up
| \  slide down
| h  hammer-on
| p  pull-off
| ~  vibrato
| +  harmonic
| .  Mute note
============================================================================
Suggest correction
Creating personal tab
Creating personal tab
You can edit any tab online and save it as your Personal.

You can edit, replace or remove any tab part or add personal notes – all changes will be seen only by you.

Personal tabs can be accessed anytime from any device, even offline.
Learn more »
comments
print report bad tab
guest
You may want to rate the tab now too:
select rating
Wanna post a correction for this tab? Suggest correction