Oops, an error
Loading. Please wait.

Show Must Go On bass

version 1
version 1

Whole song

Interactive

2,188 views 3 this week
no commentswrite comment
1 2 3 4 5
1 last vote to show rating
add to favorites
×
Save as Personal and add changes to this tab that will be seen only by you. Learn more ›
×
You can save this tab as Personal to edit and correct it or add notes. All changes will be seen only by you. Learn more »
launch autoscroll
font size
0
reset
guitar tuner
edit
Autoscroll
slow
fast
+/-
esc
set tempo
stop
ok well im still a beginner when it comes to tabs but i think this is pretty good
make sure you see the notes ring on to the next part
please leave comments or give me corrections

intro/verse
F|------------------------------------------------------------------|
C|------------------------------------------------------------------|  4x
G|----8p7--5h7--8h10--8p7--5h7-----8p7--5h7--7h8--8h10--10h12-------|
C|-00---------------------------00----------------------------------|

chorus/pre chorus
F|------------------------------------------------------------------|
C|------------------------------------------------------------------| 3x
G|------------------------------------------------------------------|
C|-0000-------------------------------------------------------------|

chorus
F|------------------------------------------------------------------|
C|------------------------------------------------------------------| 5x
G|------------------------------------------------------------------|
C|-0000~------------------------------------------------------------|

verse
F|------------------------------------------------------------------|
C|------------------------------------------------------------------| 3x
G|----8p7--5h7--8h10--8p7--5h7-----8p7--5h7--7h8--8h10--10h12-------|
C|-00---------------------------00----------------------------------|

F|------------------------------------------------------------------|
C|------------------------------------------------------------------| 1x
G|----8p7--5h7--8h10--8p7--5h7-----8p7--5h7--7h8--8h10--10h12~------|
C|-00---------------------------00----------------------------------|

bridge
F|--------------------------------------------------------------------|
C|--------------------------------------------------------------------|
G|--12/7~/5~--5/7~--7~--7/5~--5/7~--7/5~--5/12~-----------------------|
C|--------------------------------------------------------------------|

F|------------------------------------------------------------------|
C|------------------------------------------------------------------| 3x
G|--12/7~--7/12~----------------------------------------------------|
C|------------------------------------------------------------------|

(slight pause)

bridge #2
F|------------------------------------------------------------------|
C|------------------------------------------------------------------|
G|--------------------------------------------77---77---------------|
C|-12/---0000--12/--0000-0--12/--0000--12/--0----0-----0------------|


F|------------------------------------------------------------------|
C|------------------------------------------------------------------|
G|------------------------------------------------------------------|
C|-12/--0000--12/--0000-0--12/--0000--12/--0000-0-0-----------------|

you can play the c as many times really
but it sounds better if you hold it then play it again after it starts to die down
pre outro
F|------------------------------------------------------------------|
C|------------------------------------------------------------------|
G|-5~---------------------------------------------------------------|
C|------------------------------------------------------------------|

basicallly does that until the song ends
not quite sure what rythm

outro/ chorus #2
F|------------------------------------------------------------------|
C|------------------------------------------------------------------|
G|------------------------------------------------------------------|
C|00000000000000-33333333333333-777777888888------------------------|

            
            
Suggest correction
Creating personal tab
Creating personal tab
You can edit any tab online and save it as your Personal.

You can edit, replace or remove any tab part or add personal notes – all changes will be seen only by you.

Personal tabs can be accessed anytime from any device, even offline.
Learn more »
Give kudos to tab author, rate the tab!
1 2 3 4 5
comments
print report bad tab
guest
You may want to rate the tab now too:
select rating
Wanna post a correction for this tab? Suggest correction