Oops, an error
Loading. Please wait.

Show Must Go On tab

version 1
version 1

Whole song

Interactive

12,005 views 18 this week
5 commentsread comments
1 2 3 4 5
x 7
add to favorites
×
Save as Personal and add changes to this tab that will be seen only by you. Learn more ›
×
You can save this tab as Personal to edit and correct it or add notes. All changes will be seen only by you. Learn more »
launch autoscroll
font size
0
reset
how to read this tab
guitar tuner
edit
Autoscroll
slow
fast
+/-
esc
set tempo
stop
#----------------------------------PLEASE NOTE---------------------------------#
#This file is the author's own work and represents their interpretation of the #
#song. You may only use this file for private study, scholarship, or research. #
#------------------------------------------------------------------------------#

THE SHOW MUST GO ON
As recorded by Drop Dead, Gorgeous
(From the 2006 Album IN VOGUE)

Transcribed by Jonathan Rose
        

Words and Music by Drop Dead, Gorgeous
Arranged by Drop Dead, Gorgeous

Gtr I (C G C F A D) - 'Dist. Left'
Gtr II (C G C F A D) - 'Dist. Right'
Gtr III (C G C F A D) - 'Synth'
Gtr IV (C G C F A D) - 'Piano'
Gtr V (C G C F A D) - 'Synth 2'
Gtr VI (C G C F A D) - 'Backing Guitar'

 Drums       Intro
  Dancefight Q=195
  N.C.        N.C.
 3/4         4/4
  Gtrs I, II
              PM|     PM    PM       PM    PM
  H.          E E E E E E E E   E  E E E E E E E
|---------||------------------|------------------|
|---------||o-----------------|------------------|
|---------||------------------|------------------|
|---------||------------------|------------------|
|---------||o-----8p7---5h7---|-8h10---8p7---5h7-|
|---------||--0-0-----0-----0-|------0-----0-----|


  PM|     PM    PM      PM     PM
  E E E E E E E E   E E E E  E E  E  E
|-----------------|----------------------|
|-----------------|----------------------|
|-----------------|----------------------|
|-----------------|----------------------|
|-----8p7---5h7---|-7h8---8h10---10h12---|
|-0-0-----0-----0-|-----0------0---------|


  N.C.
  Gtr I
  PM|     PM    PM       PM    PM      PM|     PM    PM      PM     PM
  E E E E E E E E   E  E E E E E E E   E E E E E E E E   E E E E  E E  E  E
|-----------------|------------------|-----------------|---------------------||
|-----------------|------------------|-----------------|--------------------o||
|-----------------|------------------|-----------------|---------------------||
|-----------------|------------------|-----------------|---------------------||
|-----8p7---5h7---|-8h10---8p7---5h7-|-----8p7---5h7---|-7h8---8h10---10h12-o||
|-0-0-----0-----0-|------0-----0-----|-0-0-----0-----0-|-----0------0--------||
|
| Gtr II
| PM|     PM    PM       PM    PM      PM|     PM    PM      PM     PM
| E E E E E E E E   E  E E E E E E E   E E E E E E E E   E E E E  E E  E  E
|-----------------|------------------|-----------------|---------------------||
|-----------------|------------------|-----------------|--------------------o||
|-----------------|------------------|-----------------|---------------------||
|-----7p5---3h5---|-7h=8---7p5---3h5-|-----7p5---3h5---|-5h7---7h=8----8h10--||
|-----------------|------------------|-----------------|--------------------o||
|-0-0-----0-----0-|------0-----0-----|-0-0-----0-----0-|-----0------0--------||


 "Let's set the stage on.."
  Q=133
  D5
 6/8
  Gtrs I, II
  PM---------------------------|
  E E E E Q    H.        E E E E Q    H.
|------------|---------|------------|-------|
|------------|---------|------------|-------|
|------------|---------|------------|-------|
|------------|---------|------------|-------|
|-0-0-0-0----|---------|-0-0-0-0----|-------|
|-0-0-0-0----|---------|-0-0-0-0----|-------|


  D5
  PM------------------------------------|
  E E E E Q    H.        E E E E +Q     +H.
|------------|---------|--------------|--------|
|------------|---------|--------------|--------|
|------------|---------|--------------|--------|
|------------|---------|--------------|--------|
|-0-0-0-0----|---------|-0-0-0-0-(0)--|-(0)----|
|-0-0-0-0----|---------|-0-0-0-0-(0)--|-(0)----|


  D5      N.C.                         D5      N.C.
 6/8
  Gtr I
  PM----------------------------------------------------|
  E E E E +Q       +H.                 E E E E +Q       +H.
|----------------|-------------------|----------------|-------------------|
|----------------|-------------------|----------------|-------------------|
|----------------|-------------------|----------------|-------------------|
|----------------|-------------------|----------------|-------------------|
|-0-0-0-0-(0)----|-(0)---------------|-0-0-0-0-(0)----|-(0)---------------|
|-0-0-0-0-(0)----|-(0)---------------|-0-0-0-0-(0)----|-(0)---------------|
|
| Gtr II
| PM----|                              PM----|
| E E E E  E   E    E   E  E E  E  E   E E E E  E   E    E   E  E E  E  E
|----------------|-------------------|----------------|-------------------|
|---------11--11-|-----11-11---11-11-|---------11--11-|-----11-11---11-11-|
|---------14--14-|-----14-14---14-14-|---------14--14-|-----14-14---14-14-|
|----------------|-------------------|----------------|-------------------|
|-0-0-0-0--------|-------------------|-0-0-0-0--------|-------------------|
|-0-0-0-0--------|-------------------|-0-0-0-0--------|-------------------|


  D5      N.C.
  PM----------------------------------
  E E E E +Q       +H.
|----------------|-------------------|
|----------------|-------------------|
|----------------|-------------------|
|----------------|-------------------|
|-0-0-0-0-(0)----|-(0)---------------|
|-0-0-0-0-(0)----|-(0)---------------|
|
| PM----|
| E E E E  E   E    E   E  E E  E  E
|----------------|-------------------|
|---------11--11-|-----11-11---11-11-|
|---------14--14-|-----14-14---14-14-|
|----------------|-------------------|
|-0-0-0-0--------|-------------------|
|-0-0-0-0--------|-------------------|


                               Q=195
  D5      N.C.
                  3/8         4/8
 ------------------|
  E E E E +Q       +Q.          H
|----------------|-----------|--------------||
|----------------|-----------|--------------||
|----------------|-----------|--------------||
|----------------|-----------|--------------||
|-0-0-0-0-(0)----|-(0)-------|-12\----------||
|-0-0-0-0-(0)----|-(0)-------|-12\----------||
|
| PM----|
| E E E E  E   E    E   E  E    E   E  E  E
|----------------|-----------|--------------||
|---------11--11-|-----11-11-|-11--11-11-11-||
|---------14--14-|-----14-14-|-14--14-14-14-||
|----------------|-----------|--------------||
|-0-0-0-0--------|-----------|--------------||
|-0-0-0-0--------|-----------|--------------||


 "Everyone loves a drama!"
  N.C.
 4/4
  Gtrs I, II
  PM|     PM    PM       PM    PM      PM|     PM    PM      PM     PM
  E E E E E E E E   E  E E E E E E E   E E E E E E E E   E E E E  E E  E  E
|-----------------|------------------|-----------------|--------------------|
|-----------------|------------------|-----------------|--------------------|
|-----------------|------------------|-----------------|--------------------|
|-----------------|------------------|-----------------|--------------------|
|-----8p7---5h7---|-8h10---8p7---5h7-|-----8p7---5h7---|-7h8---8h10---10h12-|
|-0-0-----0-----0-|------0-----0-----|-0-0-----0-----0-|-----0------0-------|


  N.C.
  Gtr I
  PM|     PM    PM       PM    PM      PM|     PM    PM      PM     PM
  E E E E E E E E   E  E E E E E E E   E E E E E E E E   E E E E  E E  E  E
|-----------------|------------------|-----------------|--------------------|
|-----------------|------------------|-----------------|--------------------|
|-----------------|------------------|-----------------|--------------------|
|-----------------|------------------|-----------------|--------------------|
|-----8p7---5h7---|-8h10---8p7---5h7-|-----8p7---5h7---|-7h8---8h10---10h12-|
|-0-0-----0-----0-|------0-----0-----|-0-0-----0-----0-|-----0------0-------|
|
| Gtr II
| PM|     PM    PM       PM    PM      PM|     PM    PM      PM     PM
| E E E E E E E E   E  E E E E E E E   E E E E E E E E   E E E E  E E  E  E
|-----------------|------------------|-----------------|--------------------|
|-----------------|------------------|-----------------|--------------------|
|-----------------|------------------|-----------------|--------------------|
|-----7p5---3h5---|-7h=8---7p5---3h5-|-----7p5---3h5---|-5h7---7h=8----8h10-|
|-----------------|------------------|-----------------|--------------------|
|-0-0-----0-----0-|------0-----0-----|-0-0-----0-----0-|-----0------0-------|


  N.C.
  Gtrs I, II
  PM|     PM    PM       PM    PM      PM|     PM    PM      PM     PM
  E E E E E E E E   E  E E E E E E E   E E E E E E E E   E E E E  E E  E  E
|-----------------|------------------|-----------------|--------------------|
|-----------------|------------------|-----------------|--------------------|
|-----------------|------------------|-----------------|--------------------|
|-----------------|------------------|-----------------|--------------------|
|-----8p7---5h7---|-8h10---8p7---5h7-|-----8p7---5h7---|-7h8---8h10---10h12-|
|-0-0-----0-----0-|------0-----0-----|-0-0-----0-----0-|-----0------0-------|


  N.C.
  Gtr III
  W                 W                  W                 H..                E
|-----------------|------------------|-----------------|----------------------||
|-----------------|------------------|-----------------|----------------------||
|-----------------|------------------|-----------------|----------------------||
|-----------------|------------------|-----------------|-------------------10-||
|-----------------|------------------|-----------------|-------------------12-||
|-----------------|------------------|-----------------|----------------------||
|
| Gtr I
| PM|     PM    PM       PM    PM      PM|     PM    PM        PM     PM
| E E E E E E E E   E  E E E E E E E   E E E E E E E E   E   E E E  E E  E  E
|-----------------|------------------|-----------------|----------------------||
|-----------------|------------------|-----------------|----------------------||
|-----------------|------------------|-----------------|----------------------||
|-----------------|------------------|-----------------|----------------------||
|-----8p7---5h7---|-8h10---8p7---5h7-|-----8p7---5h7---|-7h==8---8h10---10h12-||
|-0-0-----0-----0-|------0-----0-----|-0-0-----0-----0-|-------0------0-------||
|
| Gtr II
| PM|     PM    PM       PM    PM      PM|     PM    PM        PM     PM
| E E E E E E E E   E  E E E E E E E   E E E E E E E E   E   E E E  E E  E  E
|-----------------|------------------|-----------------|----------------------||
|-----------------|------------------|-----------------|----------------------||
|-----------------|------------------|-----------------|----------------------||
|-----7p5---3h5---|-7h=8---7p5---3h5-|-----7p5---3h5---|-5h==7---7h=8----8h10-||
|-----------------|------------------|-----------------|----------------------||
|-0-0-----0-----0-|------0-----0-----|-0-0-----0-----0-|-------0------0-------||


 Bridge
  (Am)                        (Gm)
   +W            +W            W           +W
|-------------|-------------|-----------|---------|
|-------------|-------------|-----------|---------|
|-------------|-------------|-----------|---------|
|-(10)--------|-(10)--------|--8--------|--(8)----|
|-(12)--------|-(12)--------|-10--------|-(10)----|
|-------------|-------------|-----------|---------|
|
|  +W            +W            W           +W
|-------------|-------------|-----------|---------|
|-------------|-------------|-----------|---------|
|-------------|-------------|-----------|---------|
|-------------|-------------|-----------|---------|
|-(12)--------|-(12)--------|-10--------|-(10)----|
|-------------|-------------|-----------|---------|
|
|  +W            +W            W           +W
|-------------|-------------|-----------|---------|
|-------------|-------------|-----------|---------|
|-------------|-------------|-----------|---------|
|-(10)--------|-(10)--------|--8--------|--(8)----|
|-------------|-------------|-----------|---------|
|-------------|-------------|-----------|---------|


  (Am)                      (Bb)
   W           +W            W           +W
|-----------|-------------|-----------|---------||
|-----------|-------------|-----------|---------||
|-----------|-------------|-----------|---------||
|-10--------|-(10)--------|-12--------|-(12)----||
|-12--------|-(12)--------|-13--------|-(13)----||
|-----------|-------------|-----------|---------||
|
|  W           +W            W           +W
|-----------|-------------|-----------|---------||
|-----------|-------------|-----------|---------||
|-----------|-------------|-----------|---------||
|-----------|-------------|-----------|---------||
|-12--------|-(12)--------|-13--------|-(13)----||
|-----------|-------------|-----------|---------||
|
|  W           +W            W           +W
|-----------|-------------|-----------|---------||
|-----------|-------------|-----------|---------||
|-----------|-------------|-----------|---------||
|-10--------|-(10)--------|-12--------|-(12)----||
|-----------|-------------|-----------|---------||
|-----------|-------------|-----------|---------||


 "As she stared into the.."
  Am
   W                                     +W
|-------------------------------------|--------------------------------------|
|-13----------------------------------|-(13)---------------------------------|
|-------------------------------------|--------------------------------------|
|-10----------------------------------|-(10)---------------------------------|
|-12----------------------------------|-(12)---------------------------------|
|-------------------------------------|--------------------------------------|
|
|  |--3--|  |--3--|  |--3--|  |--3--|     |--3--|  |--3--|  |--3--|  |--3--|
|  E  E  E  E  E  E  E  E  E  E  E  E     E  E  E  E  E  E  E  E  E  E  E  E
|-------------------------------------|--------------------------------------|
|-------------------------------------|--------------------------------------|
|-14p12p10-14p12p10-14p12p10-14p12p10-|--14p12p10-14p12p10-14p12p10-14p12p10-|
|-------------------------------------|--------------------------------------|
|-------------------------------------|--------------------------------------|
|-------------------------------------|--------------------------------------|
|
|  |--3--|  |--3--|  |--3--|  |--3--|     |--3--|  |--3--|  |--3--|  |--3--|
|  E  E  E  E  E  E  E  E  E  E  E  E     E  E  E  E  E  E  E  E  E  E  E  E
|-------------------------------------|--------------------------------------|
|-------------------------------------|--------------------------------------|
|-------------------------------------|--------------------------------------|
|-15p14p12-15p14p12-15p14p12-15p14p12-|--15p14p12-15p14p12-15p14p12-15p14p12-|
|-------------------------------------|--------------------------------------|
|-------------------------------------|--------------------------------------|


  Gm
   W                                     +W
|-------------------------------------|-----------------------------------------|
|-15----------------------------------|-(15)------------------------------------|
|-------------------------------------|-----------------------------------------|
|--8----------------------------------|--(8)------------------------------------|
|-10----------------------------------|-(10)------------------------------------|
|-------------------------------------|-----------------------------------------|
|
|  |--3--|  |--3--|  |--3--|  |--3--|     |--3--|  |--3--|  |--3--|  |--3--|
|  E  E  E  E  E  E  E  E  E  E  E  E     E  E  E  E  E  E  E  E  E  E  E  E
|-------------------------------------|-----------------------------------------|
|-------------------------------------|-----------------------------------------|
|-12p10p=9-12p10p=9-12p10p=9-12p10p=9-|--12p10p=9-12p10p=9-12p10p=9-12p10p=9----|
|-------------------------------------|-----------------------------------------|
|-------------------------------------|-----------------------------------------|
|-------------------------------------|-----------------------------------------|
|
|  |--3--|  |--3--|  |--3--|  |--3--|     |--3--|  |--3--|  |--3--|  |--3--|
|  E  E  E  E  E  E  E  E  E  E  E  E     E  E  E  E  E  E  E  E  E  E  E  E
|-------------------------------------|-----------------------------------------|
|-------------------------------------|-----------------------------------------|
|-------------------------------------|-----------------------------------------|
|-14p12p10-14p12p10-14p12p10-14p12p10-|--14p12p10-14p12p10-14p12p10-14p12p10----|
|-------------------------------------|-----------------------------------------|
|-------------------------------------|-----------------------------------------|


  Fmaj7
   W                                     +W
|-12----------------------------------|-(12)---------------------------------|
|-------------------------------------|--------------------------------------|
|-------------------------------------|--------------------------------------|
|--7----------------------------------|--(7)---------------------------------|
|--8----------------------------------|--(8)---------------------------------|
|-------------------------------------|--------------------------------------|
|
|  |--3--|  |--3--|  |--3--|  |--3--|     |--3--|  |--3--|  |--3--|  |--3--|
|  E  E  E  E  E  E  E  E  E  E  E  E     E  E  E  E  E  E  E  E  E  E  E  E
|-------------------------------------|--------------------------------------|
|-------------------------------------|--------------------------------------|
|-14p12p10-14p12p10-14p12p10-14p12p10-|--14p12p10-14p12p10-14p12p10-14p12p10-|
|-------------------------------------|--------------------------------------|
|-------------------------------------|--------------------------------------|
|-------------------------------------|--------------------------------------|
|
|  |--3--|  |--3--|  |--3--|  |--3--|     |--3--|  |--3--|  |--3--|  |--3--|
|  E  E  E  E  E  E  E  E  E  E  E  E     E  E  E  E  E  E  E  E  E  E  E  E
|-------------------------------------|--------------------------------------|
|-------------------------------------|--------------------------------------|
|-------------------------------------|--------------------------------------|
|-15p14p12-15p14p12-15p14p12-15p14p12-|--15p14p12-15p14p12-15p14p12-15p14p12-|
|-------------------------------------|--------------------------------------|
|-------------------------------------|--------------------------------------|


  Dm
   W                                 +W
|-13------------------------------|-(13)--------------------------------|
|---------------------------------|-------------------------------------|
|---------------------------------|-------------------------------------|
|--3------------------------------|--(3)--------------------------------|
|--5------------------------------|--(5)--------------------------------|
|---------------------------------|-------------------------------------|
|
|  |-3--|  |-3--|  |-3--|  |-3--|     |-3--|  |-3--|  |-3--|  |-3--|
|  E  E E  E  E E  E  E E  E  E E     E  E E  E  E E  E  E E  E  E E
|---------------------------------|-------------------------------------|
|---------------------------------|-------------------------------------|
|-10p=9p7-10p=9p7-10p=9p7-10p=9p7-|--10p=9p7-10p=9p7-10p=9p7-10p=9p7----|
|---------------------------------|-------------------------------------|
|---------------------------------|-------------------------------------|
|---------------------------------|-------------------------------------|
|
|  |-3--|  |-3--|  |-3--|  |-3--|     |-3--|  |-3--|  |-3--|  |-3--|
|  E  E E  E  E E  E  E E  E  E E     E  E E  E  E E  E  E E  E  E E
|---------------------------------|-------------------------------------|
|---------------------------------|-------------------------------------|
|---------------------------------|-------------------------------------|
|-12p10p8-12p10p8-12p10p8-12p10p8-|--12p10p8-12p10p8-12p10p8-12p10p8----|
|---------------------------------|-------------------------------------|
|---------------------------------|-------------------------------------|


  F
  Gtr III
    W                            +W
|-----------------------------|-----------------------------|
|-----------------------------|-----------------------------|
|-----------------------------|-----------------------------|
|---7-------------------------|--(7)------------------------|
|---8-------------------------|--(8)------------------------|
|-----------------------------|-----------------------------|
|
| Gtr IV
|   E   E  E  E   E   E  E  E     E   E  E  E   E   E  E  E
|---------17-17---------17-17-|---------17-17---------17-17-|
|------15------------15-------|------15------------15-------|
|-(14)----------(14)----------|-(14)----------(14)----------|
|--12------------12-----------|--12------------12-----------|
|-----------------------------|-----------------------------|
|-----------------------------|-----------------------------|
|
| Gtr I
|   W                            +W
|-----------------------------|-----------------------------|
|-----------------------------|-----------------------------|
|-----------------------------|-----------------------------|
|-----------------------------|-----------------------------|
|---8-------------------------|--(8)------------------------|
|-----------------------------|-----------------------------|


  Em
    W                            +W
|-----------------------------|-----------------------------|
|-----------------------------|-----------------------------|
|-----------------------------|-----------------------------|
|---5-------------------------|--(5)------------------------|
|---7-------------------------|--(7)------------------------|
|-----------------------------|-----------------------------|
|
|   E   E  E  E   E   E  E  E     E   E  E  E   E   E  E  E
|---------15-15---------15-15-|---------15-15---------15-15-|
|------13------------13-------|------13------------13-------|
|-(12)----------(12)----------|-(12)----------(12)----------|
|--10------------10-----------|--10------------10-----------|
|-----------------------------|-----------------------------|
|-----------------------------|-----------------------------|
|
|   W                            +W
|-----------------------------|-----------------------------|
|-----------------------------|-----------------------------|
|-----------------------------|-----------------------------|
|-----------------------------|-----------------------------|
|---7-------------------------|--(7)------------------------|
|-----------------------------|-----------------------------|


  F
    W                          +W
|---------------------------|---------------------------|
|---------------------------|---------------------------|
|---------------------------|---------------------------|
|---7-----------------------|--(7)----------------------|
|---8-----------------------|--(8)----------------------|
|---------------------------|---------------------------|
|
|   E   E  E  E  E  E  E  E     E   E  E  E  E  E  E  E
|---------17-------17-------|---------17-------17-------|
|------15----15-------15----|------15----15-------15----|
|-(14)----------------------|-(14)----------------------|
|--12-----------12-------12-|--12-----------12-------12-|
|---------------------------|---------------------------|
|---------------------------|---------------------------|
|
|   W                          +W
|---------------------------|---------------------------|
|---------------------------|---------------------------|
|---------------------------|---------------------------|
|---------------------------|---------------------------|
|---8-----------------------|--(8)----------------------|
|---------------------------|---------------------------|


  Dm
    W                         +W
|---------------------------|--------------------------|
|---------------------------|--------------------------|
|---------------------------|--------------------------|
|---3-----------------------|-(3)----------------------|
|---5-----------------------|-(5)----------------------|
|---------------------------|--------------------------|
|
|   E   E  E  E  E  E  E  E    E   E  E  E  E  E  E  E
|---------17-------17-------|-15--------13-------12----|
|------15----15-------15----|-----13-------13-------13-|
|-(14)----------------------|--------------------------|
|--12-----------12-------12-|--------12-------12-------|
|---------------------------|--------------------------|
|---------------------------|--------------------------|
|
|   W                         +W
|---------------------------|--------------------------|
|---------------------------|--------------------------|
|---------------------------|--------------------------|
|---------------------------|--------------------------|
|---5-----------------------|-(5)----------------------|
|---------------------------|--------------------------|


  F
  Gtr III
    W                          +W
|---------------------------|---------------------------|
|---------------------------|---------------------------|
|---------------------------|---------------------------|
|---7-----------------------|--(7)----------------------|
|---8-----------------------|--(8)----------------------|
|---------------------------|---------------------------|
|
| Gtr IV
|   E   E  E  E  E  E  E  E     E   E  E  E  E  E  E  E
|---------17-------17-------|---------17-------17-------|
|------15----15-------15----|------15----15-------15----|
|-(14)----------------------|-(14)----------------------|
|--12-----------12-------12-|--12-----------12-------12-|
|---------------------------|---------------------------|
|---------------------------|---------------------------|
|
| Gtr I
|   H            H              H            H
|---------------------------|---------------------------|
|---------------------------|---------------------------|
|--10-----------10----------|--10-----------10----------|
|---x------------x----------|---x------------x----------|
|---8------------8----------|---8------------8----------|
|---------------------------|---------------------------|


  Em
    W                          +W
|---------------------------|---------------------------|
|---------------------------|---------------------------|
|---------------------------|---------------------------|
|---5-----------------------|--(5)----------------------|
|---7-----------------------|--(7)----------------------|
|---------------------------|---------------------------|
|
|   E   E  E  E  E  E  E  E     E   E  E  E  E  E  E  E
|---------15-------15-------|---------15-------15-------|
|------13----13-------13----|------13----13-------13----|
|-(12)----------------------|-(12)----------------------|
|--10-----------10-------10-|--10-----------10-------10-|
|---------------------------|---------------------------|
|---------------------------|---------------------------|
|
|   H            H              H            H
|---------------------------|---------------------------|
|---------------------------|---------------------------|
|---9------------9----------|---9------------9----------|
|---x------------x----------|---x------------x----------|
|---7------------7----------|---7------------7----------|
|---------------------------|---------------------------|


  F
    W                          +W
|---------------------------|---------------------------|
|---------------------------|---------------------------|
|---------------------------|---------------------------|
|---7-----------------------|--(7)----------------------|
|---8-----------------------|--(8)----------------------|
|---------------------------|---------------------------|
|
|   E   E  E  E  E  E  E  E     E   E  E  E  E  E  E  E
|---------17-------17-------|---------17-------17-------|
|------15----15-------15----|------15----15-------15----|
|-(14)----------------------|-(14)----------------------|
|--12-----------12-------12-|--12-----------12-------12-|
|---------------------------|---------------------------|
|---------------------------|---------------------------|
|
|   H            H              H            H
|---------------------------|---------------------------|
|---------------------------|---------------------------|
|--10-----------10----------|--10-----------10----------|
|---x------------x----------|---x------------x----------|
|---8------------8----------|---8------------8----------|
|---------------------------|---------------------------|


  Dm
    W                         +W
|---------------------------|--------------------------||
|---------------------------|--------------------------||
|---------------------------|--------------------------||
|---3-----------------------|-(3)----------------------||
|---5-----------------------|-(5)----------------------||
|---------------------------|--------------------------||
|
|   E   E  E  E  E  E  E  E    E   E  E  E  E  E  E  E
|---------17-------17-------|-15--------13-------12----||
|------15----15-------15----|-----13-------13-------13-||
|-(14)----------------------|--------------------------||
|--12-----------12-------12-|--------12-------12-------||
|---------------------------|--------------------------||
|---------------------------|--------------------------||
|
|   H            H             H            H
|---------------------------|--------------------------||
|---------------------------|--------------------------||
|---7------------7----------|--7------------7----------||
|---x------------x----------|--x------------x----------||
|---5------------5----------|--5------------5----------||
|---------------------------|--------------------------||


   [Breakdown]
    Q=133
    D5
   6/8
    Gtr I
    PM            PM----|             PM------|    PM
    E Q   Q.      E E E E Q     Q.    E E E   E Q  E Q
||--------------|------------|--------------|-----------|
||o-------------|------------|--------------|-----------|
||--------------|------------|--------------|-----------|
||--------------|------------|--------------|-----------|
||o-0----12\----|-0-0-0-0----|-12\----0-0-0-|-0----0----|
||--0----12\----|-0-0-0-0----|-12\----0-0-0-|-0----0----|
|
|   Gtr II
|   PM    PM      PM----|       PM    PM------|    PM
|   E Q   E  Q    E E E E Q     E  Q  E E E   E Q  E Q
||--------------|------------|--------------|-----------|
||o-------------|------------|--------------|-----------|
||--------------|------------|--------------|-----------|
||--------------|------------|--------------|-----------|
||o-0-----0-----|-0-0-0-0----|--0-----0-0-0-|-0----0----|
||--0-----0-----|-0-0-0-0----|--0-----0-0-0-|-0----0----|


  1.
  D5                              N.C.  D5N.C.
         PM------|
   Q.    E E E   E Q   Q.      Q.       E.    E.
|--------------|-------------|-----------------------||
|--------------|-------------|----------------------o||
|--------------|-------------|-----------------------||
|--------------|-------------|-----------------------||
|-12\----0-0-0-|-0----12\----|----------0s===12-----o||
|-12\----0-0-0-|-0----12\----|----------0s===12------||
|
|  PM    PM------|     PM
|  E  Q  E E E   E Q   E  Q    E   E  E E  E      E
|--------------|-------------|-----------------------||
|--------------|-------------|----11-11---11-----11-o||
|--------------|-------------|----14-14---14-----14--||
|--------------|-------------|-----------------------||
|--0-----0-0-0-|-0-----0-----|-0--------0-----------o||
|--0-----0-0-0-|-0-----0-----|-0--------0------------||


  2.
  D5
         PM------|             PM----|      PM   PM
   Q.    E E E   E Q   Q.      E E E E Q    E Q  E Q
|--------------|-------------|------------|-----------||
|--------------|-------------|------------|-----------||
|--------------|-------------|------------|-----------||
|--------------|-------------|------------|-----------||
|-12\----0-0-0-|-0----12\----|-0-0-0-0----|-0----0----||
|-12\----0-0-0-|-0----12\----|-0-0-0-0----|-0----0----||
|
|  PM    PM------|     PM      PM----|      PM   PM
|  E  Q  E E E   E Q   E  Q    E E E E Q    E Q  E Q
|--------------|-------------|------------|-----------||
|--------------|-------------|------------|-----------||
|--------------|-------------|------------|-----------||
|--------------|-------------|------------|-----------||
|--0-----0-0-0-|-0-----0-----|-0-0-0-0----|-0----0----||
|--0-----0-0-0-|-0-----0-----|-0-0-0-0----|-0----0----||


   Interlude
    Q=180
    F
   2/2
    Gtr V
     W                         +W
||--17----------------------|-(17)----------------------|
||o-18----------------------|-(18)----------------------|
||--------------------------|---------------------------|
||--------------------------|---------------------------|
||o-------------------------|---------------------------|
||--------------------------|---------------------------|
|
|   Gtr VI
|    <  <  <  <  <  <  <  <     <   <  <  <  <  <  <  <
|    E  E  E  E  E  E  E  E     E   E  E  E  E  E  E  E
||--------------------------|---------------------------|
||o-10-10-10-10-10-10-10-10-|--10--10-10-10-10-10-10-10-|
||--------------------------|---------------------------|
||--------------------------|---------------------------|
||o-------------------------|---------------------------|
||--------------------------|---------------------------|


  Bb                 Em
   W                  W                 5x
|-22---------------|-15-----------------||
|-23---------------|-17----------------o||
|------------------|--------------------||
|------------------|--------------------||
|------------------|-------------------o||
|------------------|--------------------||
|
|  < < < < < < < <    < < < < < < < <
|  E E E E E E E E    E E E E E E E E   5x
|------------------|--------------------||
|--6-6-6-6-6-6-6-6-|--8-8-8-8-8-8-8-8--o||
|------------------|--------------------||
|------------------|--------------------||
|------------------|-------------------o||
|------------------|--------------------||


  F
   W                         +W
|-17----------------------|-(17)----------------------|
|-18----------------------|-(18)----------------------|
|-------------------------|---------------------------|
|-------------------------|---------------------------|
|-------------------------|---------------------------|
|-------------------------|---------------------------|
|
|  <  <  <  <  <  <  <  <     <   <  <  <  <  <  <  <
|  E  E  E  E  E  E  E  E     E   E  E  E  E  E  E  E
|-------------------------|---------------------------|
|-10-10-10-10-10-10-10-10-|--10--10-10-10-10-10-10-10-|
|-------------------------|---------------------------|
|-------------------------|---------------------------|
|-------------------------|---------------------------|
|-------------------------|---------------------------|


  Em                 Dm
   W                  W
|-15---------------|-13---------------||
|-17---------------|-15---------------||
|------------------|------------------||
|------------------|------------------||
|------------------|------------------||
|------------------|------------------||
|
|  < < < < < < < <    < < < < < < < <
|  E E E E E E E E    E E E E E E E E
|------------------|------------------||
|--6-6-6-6-6-6-6-6-|--8-8-8-8-8-8-8-8-||
|------------------|------------------||
|------------------|------------------||
|------------------|------------------||
|------------------|------------------||


   "Let's set the stage on.."
    D5
    Gtr V
     W                  +W
||--17---------------|-(17)---------------|
||o-18---------------|-(18)---------------|
||--19---------------|-(19)---------------|
||-------------------|--------------------|
||o------------------|--------------------|
||-------------------|--------------------|
|
|   Gtrs I, II
|    E E E E E E E E     E  E E E E E E E
||-------------------|--------------------|
||o------------------|--------------------|
||-------------------|--------------------|
||---0-0-0-0-0-0-0-0-|---0--0-0-0-0-0-0-0-|
||o--0-0-0-0-0-0-0-0-|---0--0-0-0-0-0-0-0-|
||---0-0-0-0-0-0-0-0-|---0--0-0-0-0-0-0-0-|


  Bb5                C5
   W                  W                        4x
|-13---------------|-15------------------------||
|-15---------------|-17-----------------------o||
|-15---------------|-17------------------------||
|------------------|---------------------------||
|------------------|--------------------------o||
|------------------|---------------------------||
|
|  E E E E E E E E    E  E  E  E  E  E  E  E   4x
|------------------|---------------------------||
|------------------|--------------------------o||
|------------------|---------------------------||
|--8-8-8-8-8-8-8-8-|-10-10-10-10-10-10-10-10---||
|--8-8-8-8-8-8-8-8-|-10-10-10-10-10-10-10-10--o||
|--8-8-8-8-8-8-8-8-|-10-10-10-10-10-10-10-10---||


   Outro
    D5
    Gtr V
     W                         +W
||--17----------------------|-(17)----------------------|
||o-18----------------------|-(18)----------------------|
||--19----------------------|-(19)----------------------|
||--------------------------|---------------------------|
||o-------------------------|---------------------------|
||--------------------------|---------------------------|
|
|   Gtr I
|    E  E  E  E  E  E  E  E     E   E  E  E  E  E  E  E
||--------------------------|---------------------------|
||o-------------------------|---------------------------|
||--------------------------|---------------------------|
||---0--0--0--0--0--0--0--0-|---0---0--0--0--0--0--0--0-|
||o--0--0--0--0--0--0--0--0-|---0---0--0--0--0--0--0--0-|
||---0--0--0--0--0--0--0--0-|---0---0--0--0--0--0--0--0-|
|
|   Gtr II
|    E  E  E  E  E  E  E  E     E   E  E  E  E  E  E  E
||--------------------------|---------------------------|
||o-------------------------|---------------------------|
||--14-14-14-14-14-14-14-14-|--12--12-12-12-14-14-14-14-|
||---x--x--x--x--x--x--x--x-|---x---x--x--x--x--x--x--x-|
||o-12-12-12-12-12-12-12-12-|--10--10-10-10-12-12-12-12-|
||--------------------------|---------------------------|


  Bb5                       C5
   W                         W                        8x
|-13----------------------|-15------------------------||
|-15----------------------|-17-----------------------o||
|-15----------------------|-17------------------------||
|-------------------------|---------------------------||
|-------------------------|--------------------------o||
|-------------------------|---------------------------||
|
|  E  E  E  E  E  E  E  E    E  E  E  E  E  E  E  E   8x
|-------------------------|---------------------------||
|-------------------------|--------------------------o||
|-------------------------|---------------------------||
|--8--8--8--8--8--8--8--8-|-10-10-10-10-10-10-10-10---||
|--8--8--8--8--8--8--8--8-|-10-10-10-10-10-10-10-10--o||
|--8--8--8--8--8--8--8--8-|-10-10-10-10-10-10-10-10---||
|
|  E  E  E  E  E  E  E  E    E  E  E  E  E  E  E  E   8x
|-------------------------|---------------------------||
|-------------------------|--------------------------o||
|-15-15-15-15-15-15-15-15-|-17-17-17-17-12-12-12-12---||
|--x--x--x--x--x--x--x--x-|--x--x--x--x--x--x--x--x---||
|-13-13-13-13-13-13-13-13-|-15-15-15-15-10-10-10-10--o||
|-------------------------|---------------------------||



Duration Legend
---------------
W - whole; H - half; Q - quarter; E - 8th; S - 16th; T - 32nd; X - 64th; a - acciaccatura
+ - note tied to previous; . - note dotted; .. - note double dotted
Uncapitalized letters represent notes that are staccato (1/2 duration)
Irregular groupings are notated above the duration line
Duration letters will always appear directly above the note/fret number it represents the
duration for.  Duration letters with no fret number below them represent rests.  Multi-
bar rests are notated in the form Wxn, where n is the number of bars to rest for.  Low
melody durations appear below the staff

Tablature Legend
----------------
 h   - hammer-on
 p   - pull-off
 b   - bend
 pb  - pre-bend
 r   - bend release (if no number after the r, then release immediately)
 /\  - slide into or out of (from/to "nowhere")
 s   - legato slide
 S   - shift slide
 - natural harmonic
[n]  - artificial harmonic
n(n) - tapped harmonic
 ~   - vibrato
 tr  - trill
 T   - tap
 TP  - trem. picking
 PM  - palm muting
\n/  - tremolo bar dip; n = amount to dip
 \n  - tremolo bar down
 n/  - tremolo bar up
/n\  - tremolo bar inverted dip
 =   - hold bend; also acts as connecting device for hammers/pulls
 <> - volume swell (louder/softer)
 x   - on rhythm slash represents muted slash
 o   - on rhythm slash represents single note slash

Misc Legend
-----------
 |  - bar
||  - double bar
||o - repeat start
o|| - repeat end
*|  - double bar (ending)
 :  - bar (freetime)
 $  - Segno
 &  - Coda
Tempo markers -  = BPM(8/16=s8/s16), where s8 = swing 8ths, s16 = swing 16ths


** Generated using Power Tab Editor by Brad Larsen: The Official Power Tab Web Site

            
            
Suggest correction
Creating personal tab
Creating personal tab
You can edit any tab online and save it as your Personal.

You can edit, replace or remove any tab part or add personal notes – all changes will be seen only by you.

Personal tabs can be accessed anytime from any device, even offline.
Learn more »
comments
print report bad tab
5 comments total. Showing first comments.
0 reply
blink_your_eyes 10 Sep 14, 2006 12:46 PM

nicely put together

0 reply
lastroseonstage 16 Nov 28, 2006 10:31 PM

awesome tab man

we need more drop dead, gorgeous tabs

they ****in rock

0 reply
tucker69 757 Aug 30, 2007 04:22 PM

perfectly crazy...

guest
You may want to rate the tab now too:
select rating
Wanna post a correction for this tab? Suggest correction