Oops, an error
Loading. Please wait.

Two Birds One Stone bass

version 1
version 1

Whole song

Interactive

1,849 views 1 this week
1 commentread comment
1 2 3 4 5
2 more votes to show rating
add to favorites
×
Save as Personal and add changes to this tab that will be seen only by you. Learn more ›
×
You can save this tab as Personal to edit and correct it or add notes. All changes will be seen only by you. Learn more »
launch autoscroll
font size
0
reset
guitar tuner
edit
Autoscroll
slow
fast
+/-
esc
set tempo
stop
Band: Drop Dead, Gorgeous
Song: Two Birds, One Stone
Album: The Hot N' Heavy
Tab by: “Toño”

Intro: 0:00 – 0:10 
Only guitar

Verse 1: 0:11 – 0:34
F|---------------------|
C|---------------------|
G|-10x16--13x16--8x32--| x2
C|---------------------|

Chorus: 0:34 – 0:56
F|-------------------------------------|
C|-------------------------------------|
G|-------------------------------------| x2
C|-5x16—-8x16—-3x16—-33335555588883333-| 

Bridge: 0:57 – 1:02
F|--------|
C|--------|
G|--------|
C|--12\0--|

Verse 2: 1:02 – 1:25
F|--------------------------------------------------|
C|--------------------------------------------------|
G|--------------------------------------------------| x2
C|-5555-55-55558888-88-88883333-33-33333333-33-3333-|

Chorus: 1:25 – 1:48
F|-------------------------------------|
C|-------------------------------------|
G|-------------------------------------| x2
C|-5x16—-8x16—-3x16—-33335555588883333-| 

Break: 1:48 – 1:57
F|--------------------------------------|
C|--------------------------------------|
G|------------5~--7~--------------------|
C|--00-0-0---0---0-----00-0-0-XXXXXXXX--|

F|--------------------------------------|
C|--------------------------------------|
G|------------5~--7~--------------------|
C|--00-0-0---0---0-----00-0-0-----------|

Verse 3: 1:59 – 2:21
F|--------------------|
C|--------------------|
G|--------------------| x2
C|--5x16—-3x16-—0x32--|

Chorus: 2:24 – 2:44
F|-------------------------------|
C|-------------------------------|
G|-------------------------------|
C|--8x16—-3x6-—3333555588883333--|

F|-------------------------------------|
C|-------------------------------------|
G|-------------------------------------| x2
C|-5x16—-8x16—-3x16—-33335555588883333-| 

Outro: 2:44 – 3:07
F|--------------------|
C|--------------------|
G|--------------------|
C|--5x16—-3x16-—0x32--|

F|------|
C|------|
G|------|
C|--5~--|

            
            
Suggest correction
Creating personal tab
Creating personal tab
You can edit any tab online and save it as your Personal.

You can edit, replace or remove any tab part or add personal notes – all changes will be seen only by you.

Personal tabs can be accessed anytime from any device, even offline.
Learn more »
Give kudos to tab author, rate the tab!
1 2 3 4 5
comments
print report bad tab
1 comment total.
0 reply
royturner23 1,507 Dec 31, 2009 07:07 AM

simple and easy to read, nice.

guest
You may want to rate the tab now too:
select rating
Wanna post a correction for this tab? Suggest correction