Oops, an error
Loading. Please wait.

You Know What They Call Me Back At The Ranch Tab

155 views 1 this week
no commentswrite comment
1 2 3 4 5
2 more votes to show rating
add to favorites
launch autoscroll
font size
0
reset
how to read this tab
guitar tuner
Autoscroll
slow
fast
+/-
esc
set tempo
stop
Help us to improve Ultimate-Guitar.com Take our survey!
×
Author
Tuning
B F# B E G# C#
Artist: Dropbears
Song: You Know What They Call Me Back At The Ranch
Tuning: Drop B (B F# B E G# C#)

0:00-0:14 Electronics

0:15-0:42 (Electronic Rhythm Comes In One 5th Time)

C#---------------------------------------------------|
G#---------------------------------------------------|
E ---------------------------------------------------|
B ---------------------------------------------------|
F#-0-0--0-0----0-0--0-0----0-0-0-0-0-0-0-0--8-times--|
B -0-0--0-0----0-0--0-0----0-0-0-0-0-0-0-0-----------|
Pm - -  - -    - -  - -    - - - - - - - -


C#---------------------|
G#---------------------|
E ---------------------|
B -0--Let-it-ring-out--|
F#-0--Until-0:49-------|
B -0-------------------|

0:50-1:16

4 Times
C#---------------------------------------------------------------------------|
G#---------------------------------------------------------------------------|
E --------------------------------10-9---------------------------------15-14-|
B --------------------------------x--x---------------------------------x--x--|
F#-0-0-0-0-0-0-0-0-0--------------8--7--8-8-8-8-8-8-8-8-8--------------13-12-|
B -0-0-0-0-0-0-0-0-0--0--0--0-00--------8-8-8-8-8-8-8-8-8--5--5--5-55--------|
Pm - - - - - - - -                      - - - - - - - -

1:17-1:22

C#---------------------------------------------------------------------|
G#-------------------6--6----------------6--6--------------------6--6--|
E -------------------9--9----------------9--9--------------------9--9--|
B ---------------------------------------------------------------------|
F#-0-0-0-0-0-0-0-0-0-------0-0-0-0-0-0-0-------0-0-0-0-0-0-0-0-0-------|
B -0-0-0-0-0-0-0-0-0-------0-0-0-0-0-0-0-------0-0-0-0-0-0-0-0-0-------|
Pm - - - - - - - - -       - - - - - - -       - - - - - - - - -

-------------|
-------------|
-------------|
-------------|
-0-0-0-0-0-0-|
-0-0-0-0-0-0-|

Bass Drop At 1:23

1:24-1:36
C#----------------------------------------|
G#----------------------------------------|
E ----------------10-9--------------------|
B ----------------x--x--------------------|
F#-00-0--000-0--0-8--7--00-0--000-0-3--5--|
B -00-0--000-0--0-------00-0--000-0-3--5--|
Pm -- -  --- -  -       -- -  --- -

C#----------------------------------------|
G#----------------------------------------|
E ----------------15-14-------------------|
B ----------------x--x--------------------|
F#-00-0--000-0--0-13-12-00-0--000-0-------|
B -00-0--000-0--0-------00-0--000-0--0----|
Pm -- -  --- -  -       -- -  --- -

1:36-1:50

C#-----------------|
G#-----------------|
E -----------------|
B -----------------|
F#-00-00--000-0----|
B -00-00--000-0----|
Pm -- --  --- -----|

C#---------------------|
G#---------------------|
E ---------------------|
B -0--Let-it-ring-out--|
F#-0-------------------|
B -0-------------------|

Chorus At 2:04

C#--------------------------             -----------------|
G#--------------------------             -----------------|
E --------------------------             -----------------|
B --------------------------             -----------------|
F#-8-------5-------0-------- 2 Times     -8-------5-------|
B -8-(x32)-5-(x32)-0-(x64)-- Finish With -8-(x32)-5-(x32)-|
pm -       -       -                      -       -

Breakdown Outro (2:40)

C#----------------------------------------|
G#----------------------------------------|
E ----------------------------------------|
B ----------------------------------------|
F#-0-0--0-0---0-0--0-0----0-0-0-0-0-0-0-0-|
B -1-1--1-1---1-1--1-1----1-1-1-1-1-1-1-1-| 2 Times
Pm - -  - -   - -  - -    - - - - - - - -

C#----------------------------------------|
G#----------------------------------------|
E ----------------------------------------|
B ----------------------------------------|
F#-0-0--0-0---0-0--0-0----0-0-0-0-0-0-0-0-|
B -0-0--0-0---0-0--0-0----0-0-0-0-0-0-0-0-| 2 Times
Pm - -  - -   - -  - -    - - - - - - - -

Final Breakdown (2:56)

C#----------------------------------------|
G#----------------------------------------|
E ----------------------------------------|
B ----------------------------------------|
F#-0-0-0---0-0-0-0-0-0-0---0-0-0-0-0-0-0--|
B -0-0-0---0-0-0-0-0-0-0---0-0-0-0-0-0-0--| 2 Times
Pm - - -   - - - - - - -   - - - - - - -

Listen To Song Here
http://www.youtube.com/watch?v=Chz7fWR9n1I

Band Page
http://www.facebook.com/#!/Dropbearsband
Suggest correction
Give kudos to tab author, rate the tab!
1 2 3 4 5
comments
print report bad tab
guest
You may want to rate the tab now too:
select rating
Wanna post a correction for this tab? Suggest correction