Oops, an error
Loading. Please wait.

3Rd Man In bass

914 views 1 this week
2 commentsread comments
1 2 3 4 5
1 last vote to show rating
add to favorites
×
Save as Personal and add changes to this tab that will be seen only by you. Learn more ›
×
You can save this tab as Personal to edit and correct it or add notes. All changes will be seen only by you. Learn more »
launch autoscroll
font size
0
reset
guitar tuner
edit
Autoscroll
slow
fast
+/-
esc
set tempo
stop
Song: 3rd Man In
Band: Dropkick Murphys
Album: Tattoos & Scally Caps and Do Or Die
tabbed by: rob (LvngEndKid@aol.com)


I don't know the very first part. After that it's:

Intro

G:---------------------------------------------------------------
D:---------------------------------------------------------------
A:------------------3----------------------3----------------------
E:--3----5-----1-----5----3---5---1--------5-------------------

Verse

G:---------------------------------------------------------------
D:--------------------------------------------------0356530------
A:------------------3333--5555----------------1------------------
E:---1111--3333-----------------1111--3333----------------------

Chorus part (Be Strong and stand...)

G:---------------------------------------------------------------
D:---------------------------------------------------------------
A:---------------------333--------------------------333----------
E:--333--555--111---------333333--555--111-------313-------------

rob.

"Be strong and stand, stand like a man, your concept of friendship just ain't 
right. 3rd man in is how you show you care. Nothing else matters but the 
fight!"



            
            
Suggest correction
Creating personal tab
Creating personal tab
You can edit any tab online and save it as your Personal.

You can edit, replace or remove any tab part or add personal notes – all changes will be seen only by you.

Personal tabs can be accessed anytime from any device, even offline.
Learn more »
Give kudos to tab author, rate the tab!
1 2 3 4 5
comments
print report bad tab
2 comments total.
0 reply
SehestedtSM 91 Aug 30, 2008 08:28 AM

awsoem thx.

-SehestedtSM

0 reply
edubf22 31 Apr 05, 2012 08:18 AM

I play the first part this way:

G:----------------------------------------------------------
D:----------------------------------------------------------
A:---88-77-55-33-88-77-55-33-88-77-55-33-88-77-55-33--------
E:---------------------------------------------------3~-----

Very good tab!

guest
Wanna post a correction for this tab? Suggest correction