Oops, an error
Loading. Please wait.

God Willing Tab

version 1
version 1

Whole song

Interactive

5,716 views 6 this week
3 commentsread comments
1 2 3 4 5
accurate
x 2
add to favorites
launch autoscroll
font size
0
reset
how to read this tab
guitar tuner
Tab Pro tools
  • play this tab
  • loop segment
  • change instrument
  • show fretboard
  • metronome
Autoscroll
slow
fast
+/-
esc
set tempo
stop
Contributor
DWC
God Willing (song)
Dropkick Murphys (band)
The Meanest of Times (album)


EBGDAE (tuning)


Intro

e --------------------------------------|
b ---4---------4---------3--------3-----|
g 2----3----1----3---------3--------3---|
d 2---------1---------2--------2--------|
a 2---------1---------2--------2--------|
e --------------------2--------2--------|


e ------------------|
b ---4---------4----|
g 2----3----1----3--|
d 2---------1-------|
a 2---------1-------|
e ------------------|

e -----------------|
b -----------------|
g 3333333333333-3--|
d 3333333333333-3--|
a 1111111111111-1--|
e -----------------|

Course

e ---------------------------------------------------------------------------|
b ---------------------------------------------------------------------------|
g 8-8888888888----------------3-333333333333-88888/101010/1111\3333--99/10---|
d 8-8888888888--6-6666666666--3-333333333333-88888/101010/1111\3333--99/10---|
a 6-6666666666--6-6666666666--1-111111111111-66666/8 8 8 /9 9-\1111--77/8 ---|
e --------------4-4444444444-------------------------------------------------|


e ---------------------------------------------------------|
b ---------------------------------------------------------|
g 8-8888888888----------------3-33333333333333333--99/10---|
d 8-8888888888--6-6666666666--3-33333333333333333--99/10---|
a 6-6666666666--6-6666666666--1-11111111111111111--77/8----|
e --------------4-4444444444-------------------------------|


e ---------------------------------------------------------------------------|
b ---------------------------------------------------------------------------|
g 8-8888888888----------------3-333333333333-88888/101010/1111\3333--99/10---|
d 8-8888888888--6-6666666666--3-333333333333-88888/101010/1111\3333--99/10---|
a 6-6666666666--6-6666666666--1-111111111111-66666/8 8 8 /9 9-\1111--77/8 ---|
e --------------4-4444444444-------------------------------------------------|


e ----------------------------------------------------------|
b ----------------------------------------------------------|
g 8-8888888888----------------3-333333333333-8-88--9-99-3---|
d 8-8888888888--6-6666666666--3-333333333333-8-88--9-99-3---|
a 6-6666666666--6-6666666666--1-111111111111-6-66--7-77-1---|
e --------------4-4444444444--------------------------------|


Verse
kinda wierd strum patern so pay attention to song.


e ---------------------------------------|
b ---------------------------------------|
g ---------------------88888888-33333333-|   X3
d 6-66666666-666666666-88888888-33333333-|
a 6-66666666-666666666-66666666-11111111-|
e 4-44444444-444444444-------------------|


e -------------------------------------------------------|
b ----------------------------------------*-*-*-*--------|
g ---------------------88888888-33333333-33333333333333--|
d 6-66666666-666666666-88888888-33333333-33333333333333--|
a 6-66666666-666666666-66666666-11111111-11111111111111--|
e 4-44444444-444444444--------------------*-*-*-*--------|

(Course again)

verse2

e ---------------------------------------------|
b ---------------------------------------------|
g 8____-----8____3____---8____-----3____6____--|
d 8____6____8____3____---8____6____3____6____--|
a 6____6____6____1____---6____6____1____4____--|
e -----4____------------------4____------------|

(Course again)


(Verse again)


(Course again)


(verse2 again)


(Course again)

SOLO


e --------------------------------|
b --------------------------------|
g --------------------------------|
d 12b----10bh12bp10--11b--10b--8b-|
a --------------------------------|
e --------------------------------|

e ------------------------------------------------------------|
b ------------------------------------------------------------|
g --------10h12p10-12b---12h14p12-14b--14b-14bp12/11/12--14---|
d 12b---------------------------------------------------------|
a ------------------------------------------------------------|
e ------------------------------------------------------------|

e ------------------------------------------------------|
b 12h14p12/13/14/15/16/17/18-18b-18b-19b-19b-19b-19b19b-|
g 14b---------------------------------------------------|
d ------------------------------------------------------|
a ------------------------------------------------------|
e ------------------------------------------------------|

e 17h19p17-19b-17b-15/14-13b/12b-11-10-9/7---|
b -------------------------------------------|
g -------------------------------------------|
d -------------------------------------------|
a -------------------------------------------|
e -------------------------------------------|

verse2 again

course again

end bit

e -----------------------------------------------------------------|
b -----------------------------------------------------------------|
g 3-3-3-------------3-3-3-------------3--3--3----------------------|
d 3-3-3-6-6-6-4____-3-3-3-6-6-6-4____-1--1--1--6--6--6--4_____--4\-|
a 1-1-1-6-6-6-6____-1-1-1-6-6-6-6____-1--1--1--6--6--6--6_____--6\-|
e ------4-4-4-6____-------4-4-4-6____----------4--4--4--6_____--6\-|


* = mute

/ = slide

h = hammer on

p = pull off

_ = hold note

b = bend
comments
We did not receive enough feedback on this tab! Please rate:
print report bad tab
1 2 3 4 5
3 comments total.
0 reply
CommanderBrave wrote on October 2 2008, 07:54 am

i really doubt that they play it with this tuning Oo

0 reply
Jonbon207 wrote on September 16 2010, 07:44 pm

I think the intro should be played like this:

e:------------------------------------------------]
B:------------------------------------------------]
G:-------8----------8-----------7-----------7-----]
D:---8-----8----------6-----------8-----------8---]
A:---6----------6----------8------------8---------]
E:--------------4----------6------------6---------]

0 reply
Jonbon207 wrote on October 11 2010, 07:43 pm

e:------------------------------------------------]
B:------------------------------------------------]
G:-------8----------8-----------7-----------7-----]
D:---8-----8----------6-----------8-----------8---]
A:---6--------------------------------------------]
E:--------------4----------6------------6---------]

or this actually. single notes on the E.

I want to post or [tab]
guest
You may want to rate the tab now too:
select rating
Please do not post tabs as comments. Select "correction" instead!