Oops, an error
Loading. Please wait.

Gonna Be A Blackout Tonight bass

version 1
version 1

Whole song

936 views 1 this week
1 commentread comment
1 2 3 4 5
2 more votes to show rating
add to favorites
×
Save as Personal and add changes to this tab that will be seen only by you. Learn more ›
×
You can save this tab as Personal to edit and correct it or add notes. All changes will be seen only by you. Learn more »
launch autoscroll
font size
0
reset
guitar tuner
edit
Autoscroll
slow
fast
+/-
esc
set tempo
stop
Artist= Dropkick Murphys
Song= Gonna be a Blackout Tonight
This song is off of there new CD Blackout!! Go out and buy it all you punk fans!!
Intro 

G-------------------------------------------------------------------------------
D-----------9------------77-----------------------------------------------------
A----777-----7-----55------55---------------------------------------------------
E-------------------------------------------------------------------------------
Verse

G-------------------------------------------------------------------------------
D-------------------------------------------------------------------------------
A----77777777----55555555----777777777----9999-------5677777777-----------------
E--------------------------------------------------------------7----------------

G-------------------------------------------------------------------------------
D-------------------------------------------------------------------------------
A----55555555-------------------------------------------------------------------
E--------------------55555555----77777777---------------------------------------

Chorus

G-------------------------------------------------------------------------------
D-------------------------------------------------------------------------------
A----5555-------------5555-------------5-/---7777----5-/---7777----5-/---7777---
E--------------5555-------------5555--------------------------------------------

G-------------------------------------------------------------------------------
D-------------------------------------------------------------------------------
A-------------5555------------5555----------------------------------------------
E----7777-------------5555-------------5555-------------------------------------

Middle of Song
G-------------------------------------------------------------------------------
D-------------7^9------------5^7------------------------------------------------
A----7777----------5555-----------3333----22222222------------------------------
E-------------------------------------------------------------------------------

Then Play Intro After That 

After you play the intro you play the chorus again and that is it.

Have fun with this tab!

Note: /: slide up
     ^ : hammer on

            
            
Suggest correction
Creating personal tab
Creating personal tab
You can edit any tab online and save it as your Personal.

You can edit, replace or remove any tab part or add personal notes – all changes will be seen only by you.

Personal tabs can be accessed anytime from any device, even offline.
Learn more »
Give kudos to tab author, rate the tab!
1 2 3 4 5
comments
print report bad tab
1 comment total.
0 reply
SehestedtSM 91 Jul 01, 2009 06:20 PM

pretty close all i see rong is

on th3 intro you have
G-------------------------------------------------------------------
D-----------9------------77------------------------------------------
A----777-----7-----55------55----------------------------------------
E--------------------------------------------------------------------
but its relly
G-------------------------------------------------------------------
D-----------9------------79------------------------------------------
A----777-----7-----55------5----------------------------------------
E--------------------------------------------------------------------

guest
Wanna post a correction for this tab? Suggest correction