Oops, an error
Loading. Please wait.

Ill Begin Again tab

1,149 views 3 this week
2 commentsread comments
1 2 3 4 5
1 last vote to show rating
add to favorites
×
Save as Personal and add changes to this tab that will be seen only by you. Learn more ›
×
You can save this tab as Personal to edit and correct it or add notes. All changes will be seen only by you. Learn more »
launch autoscroll
font size
0
reset
how to read this tab
guitar tuner
edit
Autoscroll
slow
fast
+/-
esc
set tempo
stop
-----------------------------------------------------------------
I'll Begin Again - Dropkick Murphys
-----------------------------------------------------------------
Tabbed by: Dr. Viktor   
Email: yes

Tuning: Standard

My first tab, Don't be afraid to comment!!

this shows only the intro tabs and the chords used in the song, figure out the rythm for yourself!

(Intro)
Gtr.1
e|--------------------------------------------------------------------|
B|---------------------------8-------------5-5---8--------------------|
G|--^7--5p3-----^5-0--0-3-5-7--5p3-----^5--5-5--7--5p3-----^5-0--0-3-5|
D|----------3/5--------------------3/5-----------------3/5------------|
A|--------------------------------------------------------------------|
E|--------------------------------------------------------------------|

(Ending of Intro)
Gtr.1 + Gtr3
e|------------------------------6-6--10-10-10-10-10-10----------------|
B|--------------6-6-8-8-8-8-8-8---------------------------------------|
G|--7-7-7-7-7-7-------------------------------------------------------|
D|--------------------------------------------------------------------|
A|--------------------------------------------------------------------|
E|--------------------------------------------------------------------|

Gtr.2
   G5 A#5 D#5
e|--------------------------------------------------------------------|
B|--------------------------------------------------------------------|
G|--------8-----------------------------------------------------------|
D|--5--8--8-----------------------------------------------------------|
A|--5--8--6-----------------------------------------------------------|
E|--3--6--------------------------------------------------------------|


(Verse)
Gtr.2
   G5 A#5 D#5
e|--------------------------------------------------------------------|
B|--------------------------------------------------------------------|
G|--------8-----------------------------------------------------------|
D|--5--8--8--8--5-----------------------------------------------------|
A|--5--8--6--8--5-----------------------------------------------------|
E|--3--6-----6--3-----------------------------------------------------|

(Refrain)
Gtr.1 + Gtr.2

e|--------------------------------------------------------------------|
B|-----4------4-----4-------------------------------------------------|
G|--3--3---3--3--3--3--3--8--11---------------------------------------|
D|--3--1---3--1--3--1--3--8--11---------------------------------------|
A|--1------1-----1-----1--6--9----------------------------------------|
E|--------------------------------------------------------------------|

That's all I've got so far.

Please comment!!

| /  slide up
| \  slide down
| h  hammer-on
| p  pull-off
| ~  vibrato
| +  harmonic
| x  Mute note
| ^  Bend string

            
            
Suggest correction
Creating personal tab
Creating personal tab
You can edit any tab online and save it as your Personal.

You can edit, replace or remove any tab part or add personal notes – all changes will be seen only by you.

Personal tabs can be accessed anytime from any device, even offline.
Learn more »
Give kudos to tab author, rate the tab!
1 2 3 4 5
comments
print report bad tab
2 comments total.
0 reply
VilleViktor 10 Jul 06, 2009 01:59 PM

(Intro)
Gtr.1
e|--------------------------------------------------------------------|
B|---------------------------8-------------5-5---8--------------------|
G|--^7--5p3-----^3-0--0-3-5-7--5p3-----^3--5-5--7--5p3-----^3-0--0-3-5|
D|----------3/5--------------------3/5-----------------3/5------------|
A|--------------------------------------------------------------------|
E|--------------------------------------------------------------------|

0 reply
SytemOfAnIbanez 15 Oct 10, 2010 09:12 AM

Good tab, kinda bummed about a missing solo but you can't complain when this is the only tab. Good Job though.

guest
Wanna post a correction for this tab? Suggest correction