Oops, an error
Loading. Please wait.

Im Shipping Up To Boston Tab

version 1
version 1
252,349 views 279 this week
12 commentsread comments
1 2 3 4 5
x 89
add to favorites
launch autoscroll
font size
0
reset
how to read this tab
guitar tuner
Autoscroll
slow
fast
+/-
esc
set tempo
stop
Help us to improve Ultimate-Guitar.com Take our survey!
×
Author
Band: Dropkick Murphys
Song: I'm Shipping Up To Boston
Tabbed By: Ashutosh

Tuning: Standard


[Intro Melody]

e|------------------------|
B|-------------7-8-7------|
G|--9--7-9-7-9-------9-7--|
D|------------------------|
A|------------------------|
E|------------------------|

e|-----------------7------|
B|-------------7-8--------|
G|--9--7-9-7-9------------|
D|------------------------|
A|------------------------|
E|------------------------|

e|------------------------|
B|-------------7-8-7------|
G|--9--7-9-7-9-------9-7--|
D|------------------------|
A|------------------------|
E|------------------------|

e|--7---------------------|
B|----10-8-10-8-7-8-7-----|
G|--------------------7-9-|
D|------------------------|
A|------------------------|
E|------------------------|


[Second Part] (played higher)

e|------------------14-15-14-------|
B|--17--15-17-15-17----------17-15-|
G|---------------------------------|
D|---------------------------------|
A|---------------------------------|
E|---------------------------------|

e|------------------14-15-19-------|
B|--17--15-17-15-17----------------|
G|---------------------------------|
D|---------------------------------|
A|---------------------------------|
E|---------------------------------|

e|------------------14-15-14-------|
B|--17--15-17-15-17----------17-15-|
G|---------------------------------|
D|---------------------------------|
A|---------------------------------|
E|---------------------------------|

e|--19-17-15-17-15----15-----------|
B|-----------------19----19-15-17--|
G|---------------------------------|
D|---------------------------------|
A|---------------------------------|
E|---------------------------------|
Suggest correction
comments
print report bad tab
12 comments total. Showing first comments.
0 reply
mexican dreamer 10 Jun 12, 2007 06:48 PM

good tab...can you figure out the rest of the intro...when it goes higher...

0 reply
NimbleElephant 30 Aug 09, 2007 08:49 PM

Those are bagpipes mex dreamer, that's why it's high.

0 reply
RATM forever 10 Jan 25, 2008 05:15 PM

this whole meoldy is played with a banjo and an acordion, and the closest thing you can get to a correct tab is the
banjo part, and this is a very good job of that. and also, mesican dreamer, refer to version 3 i think for the rest of
the tab, when it goes higher

guest
You may want to rate the tab now too:
select rating
Wanna post a correction for this tab? Suggest correction