Oops, an error
Loading. Please wait.

Johnny I Hardly Knew Ya Tab

version 1
version 1

Whole song

Interactive

72,291 views 12 this week
8 commentsread comments
1 2 3 4 5
x 23
add to favorites
launch autoscroll
font size
0
reset
how to read this tab
guitar tuner
backing track
0:00
0:00
Autoscroll
slow
fast
+/-
esc
set tempo
stop
Difficulty
intermediate
e|------------------------------------------------------------|
B|------------------------------------------------------------|
G|--------------------0------0--------------------------------|
D|-----2--2--2--2--4------4-----2--0-------0------------------|
A|--2----------------------------------2----------------------|
E|------------------------------------------------------------|

e|------------------------------------------------------------|
B|------------------------------------------------------------|
G|--------------------0------0--2--4--0--4--------------------|
D|-----2--2--2--2--4------4-----------------------------------|
A|--2---------------------------------------------------------|
E|------------------------------------------------------------|

e|------------------------------------------------------------|
B|------------------------------------------------------------|
G|--0---4-4-4-4-5-4---2-2-2-2-4-2---0-0-0-0-------------------|
D|------------------------------------------4-2-4~~-----------|
A|------------------------------------------------------------|
E|------------------------------------------------------------|

e|------------------------------------------------------------|
B|------------------------------------------------------------|
G|--0-4-2-0-2-0-----------------------------------------------|
D|--------------4-5-4-2-4-2-0-2----0--2b----------------------|
A|------------------------------------------------------------|
E|------------------------------------------------------------|

************************************

| ~  Vibrato
| b  Bend

************************************
Suggest correction
comments
print report bad tab
8 comments total. Showing first comments.
0 reply
DKMfreak410 50 Mar 21, 2008 11:05 AM

Thanks man ive been waiting for this.
Ive tried the chords but couldnt find the timing in the song so this should be good.

+2 reply
THE SEEKKEr 10 Mar 24, 2008 03:31 PM

just do the rest of the song and ill be happy

+2 reply
THE SEEKKEr 10 Mar 24, 2008 03:37 PM

pleaaaaasssssseeeeeeeee make tab for the rest of the song

guest
You may want to rate the tab now too:
select rating
Wanna post a correction for this tab? Suggest correction