Oops, an error
Loading. Please wait.

Johnny I Hardly Knew Ya Tab

version 3
version 3

Whole song

Interactive

22,499 views 3 this week
1 commentread comment
1 2 3 4 5
excellent!
x 13
add to favorites
launch autoscroll
font size
0
reset
how to read this tab
guitar tuner
Autoscroll
slow
fast
+/-
esc
set tempo
stop
Help us to improve Ultimate-Guitar.com Take our survey!
×
Author
upstrum, mute all but low E, A, D with the hammer on.
E--0-----0----0-----------------------------------------------|
B--0-----0----0-----------------------------------------------|
G--0-----0----0-----------------------------------------------|
D--0h2~--0h2~-0h2~--------------------------------------------|
A--0h2~--0h2~-0h2~--------------------------------------------|
E--0~~~--0~~~-0~~~--------------------------------------------|

  While on the road to sweet Athy, harroo harroo
E------------------------------------------------------------|
B------------------------------------------------------------|
G------------------------------------------------------------|
D--0--2--2--2--2--4--5---4--5--2--0-------0------------------|
A-------------------------------------2----------------------|
E------------------------------------------------------------|

  While on the road to sweet Athy, harroo harroo
E------------------------------------------------------------|
B------------------------------------------------------------|
G------------------------------------------------------------|
D-----2--2--2--2--4--5---4--5--7--9--5--9--------------------|
A--2---------------------------------------------------------|
E------------------------------------------------------------|

  While on the road to sweet Athy, a stick in the hand, a drop in the eye
E------------------------------------------------------------|
B------------------------------------------------------------|
G------------------------------------------------------------|
D--5--9--9--9--9---5--7--7--7--4--5--5--5--5---2--4--4--4----|
A------------------------------------------------------------|
E------------------------------------------------------------|

  A doleful damsel I heard cry, Johnny I hardly knew ya
E------------------------------------------------------------|
B------------------------------------------------------------|
G--9-(9)-(9)-7-(7)-(7)-5-(5)-(5)-4---2--2--2--2--0--2--------|
D------------------------------------------------------------|
A------------------------------------------------------------|
E------------------------------------------------------------|

 This chord progression once without lyrics, then next verse starts. There is alot of 
muting going on and off, listen to the version you like best, try to make it sound how you want.
 Em                                Dmaj
E---X--X--X--X--X--X--X--X--X--X-X--2--2--2--2--2--2--2------|
B---X--X--X--X--X--X--X--X--X--X-X--3--3--3--3--3--3--3------|
G---X--X--X--X--X--X--X--X--X--X-X--2--2--2--2--2--2--2------|
D---2--2--2--2--2--2--2--2--2--2-X--0--0--0--0--0--0--0------|
A---2--2--2--2--2--2--2--2--2--2-X--0--0--0--0--0--0--0------|
E---0--0--0--0--0--0--0--0--0--0-X---------------------------|
 Em                                G        B?
E---X--X--X--X--X--X--X--X--X-X-X--3--3--3--X--X--X----------|
B---X--X--X--X--X--X--X--X--X-X-X--3--3--3--X--X--X----------|
G---X--X--X--X--X--X--X--X--X-X-X--0--0--0--4--4--4----------|
D---2--2--2--2--2--2--2--2--2-2-X--0--0--0--4--4--4----------|
A---2--2--2--2--2--2--2--2--2-2-X--2--2--2--2--2--2----------|
E---0--0--0--0--0--0--0--0--0-0-X--3--3--3--2--2--2----------|

 Em                  D                 C        B?
E---X--X--X--X--X--X--2--2--2--2--2--2--0--0--0--X--X--X-----|
B---X--X--X--X--X--X--3--3--3--3--3--3--1--1--1--X--X--X-----|
G---X--X--X--X--X--X--2--2--2--2--2--2--0--0--0--4--4--4-----|
D---2--2--2--2--2--2--0--0--0--0--0--0--2--2--2--4--4--4-----|
A---2--2--2--2--2--2--0--0--0--0--0--0--3--3--3--2--2--2-----|
E---0--0--0--0--0--0--------------------0--0--0--2--2--2-----|

 Em        A      C    D    Em     C     Em
E---X--X-X-0--0-X-0--0--2----X--X-X-0-0-X-X--X---------------|
B---X--X-X-2--2-X-1--1--3----X--X-X-1-1-X-X--X---------------|
G---X--X-X-2--2-X-0--0--2----X--X-X-0-0-X-X--X---------------|
D---2--2-X-2--2-X-2--2--0----2--2-X-2-2-X-2--2---------------|
A---2--2-X-0--0-X-3--3--0----2--2-X-3-3-X-2--2---------------|
E---0--0-X-0--0-X-0--0-------0--0-X-0-0-X-0--0---------------|

Repeats:
Where are the eyes that looked so mild, harroo harroo
 Em                                Dmaj
E---X--X--X--X--X--X--X--X--X--X-X--2--2--2--2--2--2--2------|
B---X--X--X--X--X--X--X--X--X--X-X--3--3--3--3--3--3--3------|
G---X--X--X--X--X--X--X--X--X--X-X--2--2--2--2--2--2--2------|
D---2--2--2--2--2--2--2--2--2--2-X--0--0--0--0--0--0--0------|
A---2--2--2--2--2--2--2--2--2--2-X--0--0--0--0--0--0--0------|
E---0--0--0--0--0--0--0--0--0--0-X---------------------------|

Where are the eyes that looked so mild, harroo harroo
 Em                                G        B?
E---X--X--X--X--X--X--X--X--X-X-X--3--3--3--X--X--X----------|
B---X--X--X--X--X--X--X--X--X-X-X--3--3--3--X--X--X----------|
G---X--X--X--X--X--X--X--X--X-X-X--0--0--0--4--4--4----------|
D---2--2--2--2--2--2--2--2--2-2-X--0--0--0--4--4--4----------|
A---2--2--2--2--2--2--2--2--2-2-X--2--2--2--2--2--2----------|
E---0--0--0--0--0--0--0--0--0-0-X--3--3--3--2--2--2----------|

Where are the eyes that looked so mild, when my poor heart ya first beguiled
 Em                  D                 C        B?
E---X--X--X--X--X--X--2--2--2--2--2--2--0--0--0--X--X--X-----|
B---X--X--X--X--X--X--3--3--3--3--3--3--1--1--1--X--X--X-----|
G---X--X--X--X--X--X--2--2--2--2--2--2--0--0--0--4--4--4-----|
D---2--2--2--2--2--2--0--0--0--0--0--0--2--2--2--4--4--4-----|
A---2--2--2--2--2--2--0--0--0--0--0--0--3--3--3--2--2--2-----|
E---0--0--0--0--0--0--------------------0--0--0--2--2--2-----|

Why did ya run from me and the child, Johnny I hardly knew ya
 Em        A      C    D    Em     C     Em
E---X--X-X-0--0-X-0--0--2----X--X-X-0-0-X-X--X---------------|
B---X--X-X-2--2-X-1--1--3----X--X-X-1-1-X-X--X---------------|
G---X--X-X-2--2-X-0--0--2----X--X-X-0-0-X-X--X---------------|
D---2--2-X-2--2-X-2--2--0----2--2-X-2-2-X-2--2---------------|
A---2--2-X-0--0-X-3--3--0----2--2-X-3-3-X-2--2---------------|
E---0--0-X-0--0-X-0--0-------0--0-X-0-0-X-0--0---------------|

Chorus: same chords
We had guns & drums & drums & guns, harroo haroo
We had guns & drums & drums & guns, harroo haroo
We had guns & drums & drums & guns, the enemy never slew ya
johnny i hardly knew ya

Repeats again with:
Where are the legs with which ya run, harroo harroo
Where are the legs with which ya run, harroo harroo
Where are the legs with which ya run when first ya went to carry a gun
Indeed (I fear) your dancin days are done,
Johnny I hardly knew ya

Same thing:
Ya hadn't an arm, ya hadn't a leg, harroo harroo
Ya hadn't an arm, ya hadn't a leg, harroo harroo
Ya hadn't an arm, ya hadn't a leg,
you're an spineless boneless chickenless egg
You'll have to be put in a bowl to beg,
Johnny I hardly knew ya

This time its the same as the intro minus the Eminor hammerons

 I'm happy for to see ya home, harroo harroo
E------------------------------------------------------------|
B------------------------------------------------------------|
G------------------------------------------------------------|
D--0--2--2--2--2--4--5---4--5--2--0-------0------------------|
A-------------------------------------2----------------------|
E------------------------------------------------------------|

 I'm happy for to see ya home, harroo harroo
E------------------------------------------------------------|
B------------------------------------------------------------|
G------------------------------------------------------------|
D-----2--2--2--2--4--5---4--5--7--9--5--9--------------------|
A--2---------------------------------------------------------|
E------------------------------------------------------------|

 I'm happy for to see ya home, from the Isle of Ceylon
E------------------------------------------------------------|
B------------------------------------------------------------|
G------------------------------------------------------------|
D--5--9--9--9--9---5--7--7--7--4--5--5--5--5---2--4--4--4----|
A------------------------------------------------------------|
E------------------------------------------------------------|

                                     Johnny I hardly knew ya
E------------------------------------------------------------|
B------------------------------------------------------------|
G------------------------------------------------------------|
D---5--7--9--7--5--7--5--4--5--4--0--2-----------------------|
A------------------------------------------------------------|
E------------------------------------------------------------|

Goes back to the Chorus, same chords. Thats the song, hope it helps.
Suggest correction
What's this?
You can suggest a correction to this tab. Community and Mods will review your correction and vote to approve or reject it.
comments
print report bad tab
1 comment total.
0 reply
Izaak247 1,642 wrote on March 25 2012, 05:37 am

Sounds alright in drop c

guest
You may want to rate the tab now too:
select rating
Please do not post tabs as comments. Select "correction" instead!