Oops, an error
Loading. Please wait.

Johnny I Hardly Knew Ya Tab

version 4
version 4

Whole song

Interactive

925 views 1 this week
no commentswrite comment
1 2 3 4 5
please rate
add to favorites
launch autoscroll
font size
0
reset
how to read this tab
guitar tuner
Autoscroll
slow
fast
+/-
esc
set tempo
stop
Help us to improve Ultimate-Guitar.com Take our survey!
×
Contributor
Difficulty
novice
HOLA A TODOS ESTA ES MI PRIMER TAB Y BUENO PUSE ESTA CANCION DE LOS DROPKICK
http://www.youtube.com/watch?v=kkNmOTyGb2A ESTE ES EL VIDEO DEL COVER KE ISE POR SI TIENEN DUDAS

GTR 1: CLEAN
INTRO
E------------------------------------------------------------------------------|
B------------------------------------------------------------------------------|
G---------7----9---9999---11H12---11--12—9—7--------7--------------------------|
D--------------------------------------------------------------9---------------|
A------------------------------------------------------------------------------|
E------------------------------------------------------------------------------|

E-----------------------------------------------------------------------------------|
B-----------------------------------------------------------------------------------|
G----------------7—9999-----11H12----11--12---14---14H16---14--16-------------------|
D---7---9---------------------- ----------------------------------------------------|
A-----------------------------------------------------------------------------------|
E-----------------------------------------------------------------------------------|

E--------------------------------------------------------------------------------------|
B--------------------------------------------------------------------------------------|
G-----16-16-16-16-16-16-16-16---14-14-14-14-14-14---12-12-12-12------------------------|
D--------------------------------------------------------------------------------------|
A--------------------------------------------------------------------------------------|
E--------------------------------------------------------------------------------------|

E------------------------------------------------------------------------------------|
B------------------------------------------------------------------------------------|
G-----14--12--11--11 --12---14--16--14--12--14--12-11--12--14--12--11---999999--7-9--|
D------------------------------------------------------------------------------------|
A------------------------------------------------------------------------------------|
E------------------------------------------------------------------------------------|

RIFF GTR1: DISTOR
E----------------------------------------------------------------------------|
B----------------------------------------------------------------------------|
G--7/---9--9-9-9-9-9-9-----11--11/-12-11--12-----9---7-----------7-7-7-7-----|
D--X/---X--X-X-X-X-X-X-----X---X/--X---X----X-------X---X-----9----X-X-X-X---|
A--5/---7--7-7-7-7-7-7-----9---9/--10--9---10------7---5-----X-----5-5-5-5---|
E-------------------------------------------------------------------------7--|

E-------------------------------------------------------------------------|
B-------------------------------------------------------------------------|
G--7/-9-9-9-9-----11--11/-12---11--12----14--14/--16---14--16-16-16-------|
D--X/-X-X-X-X-----X---X/---X----X----X------X----X/----X----X----X--X--X--|
A--5/-7-7-7-7-----9---9/--10----9--10-----12---12/--14---12--14-14-14-----|
E-------------------------------------------------------------------------|


E----------------------------------------------------------------------------|
B----------------------------------------------------------------------------|
G--14----16-16-16---16--14-14-14-14---12-12-12-12---11--11--11--11-----------|
D---X------X---X---X---X----X---X---X--X----X---X---X---X----X---X---X----X--|
A--12-----14-14-14-14---12-12-12-12---10-10-10-10----9---9---9---9-----------|
E----------------------------------------------------------------------------|

E------------------------------------------------------------------------|
B------------------------------------------------------------------------|
G--X-X--16--X-X----14---X-X---12/14--12-11-----9-9-9-9-9-9-9----7--9-----|
D--X-X---X---X-X----X----X-X----X/-X----X---X------X-X-X-X-X-X-X---X--X--|
A--X-X--14--X-X---12----X-X---10/12--10--9------7-7-7-7-7-7-7---5--7-----|
E------------------------------------------------------------------------|

SOLO GRT1: DISTOR

E------------------------------------------------------------------------------------------------|
B------------------------------------------------------------------------------------------------|
G------------------------------------------------------------------------------------------------|
D------------------------------------------------------------------------------------------------|
A--5-77777--9--10--9-10--7--5------5---5--777777--9-10-9-10---12--14-12--14--12--14-14-14-14-14--|
E---------------------------------------7--------------------------------------------------------|


E------------------------------------------------------------------------------|
B------------------------------------------------------------------------------|
G------------------------------------------------------------------------------|
D------------------------------------------------------------------------------|
A--12-12-12-12-12-12---10-10-10-10-10-10-10----12--10--9--9--10--12--14-12-10--|
E------------------------------------------------------------------------------|

E-----------------------------------------|
B-----------------------------------------|
G-----------------------------------------|
D-----------------------------------------|
A--12-10-9-10-12-10-9--------777777--5-7--|
E-----------------------------------------|
Suggest correction new What's this?
You can suggest a correction to this tab. Community and Mods will review your correction and vote to approve or reject it.
comments
We did not receive enough feedback on this tab! Please rate:
print report bad tab
1 2 3 4 5
I want to post or [tab]
guest
You may want to rate the tab now too:
select rating
Please do not post tabs as comments. Select "correction" instead!