Oops, an error
Loading. Please wait.

Kiss Me Im Shitfaced tab

version 1
version 1

Whole song

Interactive

20,976 views 3 this week
3 commentsread comments
1 2 3 4 5
x 4
add to favorites
×
Save as Personal and add changes to this tab that will be seen only by you. Learn more ›
×
You can save this tab as Personal to edit and correct it or add notes. All changes will be seen only by you. Learn more »
launch autoscroll
font size
0
reset
how to read this tab
guitar tuner
edit
Autoscroll
slow
fast
+/-
esc
set tempo
stop
Author
Difficulty
SONG – Kiss Me I’m Shitfaced
ARTIST – Dropkick Murphys
ALBUM – Blackout


*********NOTE***********
***Tune 1/2 step down***
***Figure out strumming yourself***
***My Intro is pretty crappy and there are a few other problems but this is the best 
seen yet, so give me all the suggestions you've got.  email me at cubs2230@verizon.net

Intro
e|-------------------------|
B|-------------------------|
G|--8h9--8-----9--8--------|
D|--9-------9--9-----9--9--|
A|--7----------9--------9--|
E|----------------------7--|

  (bagpipe arranged for guitar)
e|-----12---12---14-16-14-11--11--11-11-9--7--9--|
B|--12-------------------------------------------|
G|-----------------------------------------------|
D|-----------------------------------------------|
A|-----------------------------------------------|
E|-----------------------------------------------|

e|--12--12--11-9-7---12--11-12-14---9--9--12--12--11--7--|
B|-------------------------------------------------------|
G|-------------------------------------------------------|
D|-------------------------------------------------------|
A|-------------------------------------------------------|
E|-------------------------------------------------------|

Verse 1
e|---------------------------------------------|
B|---------------------------------------------|
G|----------------------------9----------------|
D|--9-------------------------9-----------9----|
A|--9-------------------------7-----------9----|
E|--7-------------------------------------7----|
  I play in a band, we’re the best in the land

e|-----------------------------------|
B|-----------------------------------|
G|----------------------------11-----|
D|----9-----------------------11-----|
A|----9-----------------------9------|
E|----7------------------------------|
we’re big in both Chelsea and France.

e|------------------------------------------------|
B|------------------------------------------------|
G|-----11-----------------------9-----------------|
D|-----11-----------------------9------------9----|
A|-----9------------------------7------------9----|
E|-------------------------------------------7----|
I play one mean guitar and then score at the bar

e|-------------------------------------------------|
B|-------------------------------------------------|
G|--------9--------------------------------11------|
D|--------9--------------9-----------------11------|
A|--------7--------------9-----------------9-------|
E|-----------------------7-------------------------|
There’s a line of chicks waiting for their chance

e|-----------------------------------------------|
B|-----------------------------------------------|
G|-------------------------9---------------------|
D|-9-----------------------9-------------9-------|
A|-9-----------------------7-------------9-------|
E|-7-------------------------------------7-------|
So come on now honey, I’ll make you feel pretty

e|------------------------------------|
B|------------------------------------|
G|-------------------------------11---|
D|----9--------------------------11---|
A|----9--------------------------9----|
E|----7-------------------------------|
These other gals mean nothing to me

e|-----------------------------------------------------|
B|-----------------------------------------------------|
G|-------11-------------------------9------------------|
D|-------11-------------------------9------------9-----|
A|-------9--------------------------7------------9-----|
E|-----------------------------------------------7-----|
so let’s finish these drinks and be gone for the night

e|-----------------------------------------|
B|-----------------------------------------|
G|---------9---------------------------8---|
D|---------9-----------9---------------8---|
A|---------7-----------9---------------6---|
E|---------------------7-------------------|
pm                                     .
‘cause I’m more than a handful, you’ll see

Chorus
e|--------------------------------------------------------|
B|--------------------------------------------------------|
G|-9-------------------------------------------------11---|
D|-9------------9------------------------------------11---|
A|-7------------9------------------------------------9----|
E|--------------7-----------------------------------------|
so kiss me, I’m s**tfaced.I’m soaked, I’m soiled and brown

e|-------------------------------------------------------------|
B|-------------------------------------------------------------|
G|-----9----------------------------------9--------------------|
D|-----9------------9----------------11---9--------------9-----|
A|-----7------------9----------------11---7--------------9-----|
E|------------------7----------------9-------------------7-----|
in the trousers she kissed me. and I only bought her one round

Verse 2
(same as Verse 1)


Chorus


Verse 3
(same as Verses 1 + 2)


Chorus x2


Verse 4
e|----2--------------------0-------------2-------|
B|----4--------------------0-------------4-------|
G|----4--------------------1-------------4-------|
D|----4--------------------2-------------4-------|
A|----2--------------------2-------------2-------|
E|-------------------------0---------------------|
I’m a pitiful sight, and I aint all that bright

e|--2----------------------------2------|
B|--4----------------------------2------|
G|--4----------------------------3------|
D|--4----------------------------4------|
A|--2----------------------------4------|
E|-------------------------------2------|
I’m definitely not chiseled from stone

e|----2---------------------0---------2----|
B|----2---------------------0---------4----|
G|----3---------------------1---------4----|
D|----4---------------------2---------4----|
A|----4---------------------2---------2----|
E|----2---------------------0--------------|
I’m a cheat, and a liar, no woman’s desire

e|---0------------2---------2~----|
B|---0------------2---------4~----|
G|---1------------3---------4~----|
D|---2------------4---------4~----|
A|---2------------4---------2~----|
E|---0------------2---------------|
I’ll probably die cold and alone

e|-------------------------------------------------|
B|-------------------------------------------------|
G|-------------------------------9#----------------|
D|-------9#----------------------9#----------------|
A|-------9#----------------------7#----------------|
E|-------7#----------------------------------------|
but just give me a chance, cause deep down inside

e|--------------------------------------|
B|--------------------------------------|
G|-------------------------------11-----|
D|-------------------------------11-----|
A|-------------------------------9------|
E|--------------------------------------|
I swear, I’ve got a big heart of gold

e|----------------------------------------------|
B|----------------------------------------------|
G|------11#-------------------------------------|
D|------11#--------------9#---------------------|
A|------9-#--------------9#---------------------|
E|-----------------------7#---------------------|
I’m a monogamous man, no more one-night-stands

e|-----------------------------------|
B|-----------------------------------|
G|---9---------11--------------------|
D|---9---------11--------------9-----|
A|---7---------9---------------9-----|
E|-----------------------------7-----|
come on honey, let me take you home

Chorus
e|--------------------------------------------------------|
B|--------------------------------------------------------|
G|-9-------------------------------------------------11---|
D|-9------------9------------------------------------11---|
A|-7------------9------------------------------------9----|
E|--------------7-----------------------------------------|
so kiss me, I’m s**tfaced.I’m soaked, I’m soiled and brown

e|-------------------------------------------------------------|
B|-------------------------------------------------------------|
G|-----9----------------------------------9--------------------|
D|-----9------------9----------------11---9--------------9-----|
A|-----7------------9----------------11---7--------------9-----|
E|------------------7----------------9-------------------7-----|
in the trousers she kissed me. and I only bought her one round

e|--------------------------------------------------------|
B|--------------------------------------------------------|
G|-9-------------------------------------------------11---|
D|-9------------9------------------------------------11---|
A|-7------------9------------------------------------9----|
E|--------------7-----------------------------------------|
so kiss me, I’m s**tfaced.I’m soaked, I’m soiled and brown

e|-------------------------------------------------------------|
B|-------------------------------------------------------------|
G|-----9#-----------------------------------9------------------|
D|-----9#------------------9#----------11---9--------------9---|
A|-----7#------------------9#----------11---7--------------9---|
E|-------------------------7#----------9-------------------7---|
in the trousers.  oh, it’s tiny. and I only bought her one round


Bridge
(just play the chords of the Chorus)


Chorus x2
Suggest correction
Creating personal tab
Creating personal tab
You can edit any tab online and save it as your Personal.

You can edit, replace or remove any tab part or add personal notes – all changes will be seen only by you.

Personal tabs can be accessed anytime from any device, even offline.
Learn more »
comments
print report bad tab
3 comments total.
0 reply
Zoso68 272 Sep 16, 2007 01:06 PM

good except for the intro...i figured it out its easy maybe il tab it later

0 reply
Zoso68 272 Sep 25, 2007 11:17 AM

Tuning: Full Step Down (DGCFAd)

Intro Electric and Acoustic

e|---------------------------------------------------------------------------|
B|-----3h5-3-1---1-----1--------------------------------------------|
G|-----0-0--0-0---0h2-0-------------------------------------------------------------|
D|-----------------------------2----------------------------------------------|
A|---------------------------------3------------------------------------------|
E|---------------------------------------------------------------------------|

or a simplified version in DGCFAd
e|---------------------------------------------------------------------------|
B|------3h5-3-1-------------------------------------------------------------------|
G|------------------0h2-0--------------------------------------------------------|
D|----------------------------2-----------------------------------------------|
A|--------------------------------3-------------------------------------------|
E|---------------------------------------------------------------------------|

In standard
e|---------------------------------------------------------------------------|
B|---------------------------------------------------------------------------|
G|----5h7-5--3--------------------------------------------------------------------|
D|------------------3h5-3-0-------------------------------------------------------|
A|-------------------------------1--------------------------------------------|
E|---------------------------------------------------------------------------|

0 reply
missesfatas 10 Dec 03, 2007 05:50 PM

they all dont sound right man

guest
You may want to rate the tab now too:
select rating
Wanna post a correction for this tab? Suggest correction