Oops, an error
Loading. Please wait.

Rose Tattoo bass

version 1
version 1

Whole song

  • The whole song written out for bass. With the correct notes.

Interactive

2,853 views 39 this week
no commentswrite comment
1 2 3 4 5
1 last vote to show rating
add to favorites
×
Save as Personal and add changes to this tab that will be seen only by you. Learn more ›
×
You can save this tab as Personal to edit and correct it or add notes. All changes will be seen only by you. Learn more »
launch autoscroll
font size
0
reset
guitar tuner
edit
Autoscroll
slow
fast
+/-
esc
set tempo
stop
Author
Difficulty
-------------------------------------------------------------------------------
                             ROSE TATTOO - DROPKICK MURPHYS
-------------------------------------------------------------------------------


Tuning: Standard 

The timings are a little bit weird, but very easy when you get it down.

Start at :40
G|----------------------------------------------------------|
D|----------------------------------------------------------|
A|----4------4-----2------2------4------4------2------2-----|  X3
E|----------------------------------------------------------|

Verse/Chorus (This one's for the mighty sea...)
G|--------------------------------|
D|--------------------------------|
A|----4--6--4--6--2--4--2--4------| X11
E|--------------------------------|

Break: (This one means the most to me...)
G|--------------------------------|
D|--------------------------------|
A|---4--6--4--6--2--4--2--4-------| X3
E|--------------------------------|

Break Part 2: (You'll always be here with me...)
G|-------------------|
D|-------------------|
A|---4--4--6--6------|
E|-------------------|

Back to Chorus
Repeat Break Part 2 

Solo: (Slightly Faster)
G|----------------------------|
D|----------------------------|
A|---4--6--4--6--2--4--2--4---| Stop at 4:55
E|----------------------------|

Outro:
G|-------------|
D|-------------|
A|---4/6-------|
E|-------------|




| /  slide up
| \  slide down
| h  hammer-on
| p  pull-off
| ~  vibrato
| +  harmonic
| x  Mute note
===============================================================================

            
            
Suggest correction
Creating personal tab
Creating personal tab
You can edit any tab online and save it as your Personal.

You can edit, replace or remove any tab part or add personal notes – all changes will be seen only by you.

Personal tabs can be accessed anytime from any device, even offline.
Learn more »
Give kudos to tab author, rate the tab!
1 2 3 4 5
comments
print report bad tab
guest
You may want to rate the tab now too:
select rating
Wanna post a correction for this tab? Suggest correction