Oops, an error
Loading. Please wait.

Rose Tattoo Bass Tab

version 2
version 2

Whole song

  • The whole song written out for bass. With the correct notes.

Interactive

175 views 6 this week
1 commentread comment
1 2 3 4 5
2 more votes to show rating
add to favorites
launch autoscroll
font size
0
reset
guitar tuner
Autoscroll
slow
fast
+/-
esc
set tempo
stop
Help us to improve Ultimate-Guitar.com Take our survey!
×
Author
Difficulty
novice
About this tab version
The whole song written out for bass. With the correct notes. Was this info helpful? Yes No
-------------------------------------------------------------------------------
                             ROSE TATTO - Dropkick Murphys
-------------------------------------------------------------------------------
Tabbed by: Thaise921
E-mail: thaise921ug@outlook.com

Tuning: Standard (EADGBE)

This tab is written based on this youtube-link: https://www.youtube.com/watch?v=na0wplUa1mM


[Intro]
Start after the line: "Down a little something and then be on my way"
G|----------|----------|
D|----------|----------|
A|----------|----------|
E|-5~~~~~~~~|~~~~~~~~~~|


[Verse]
 "I traveled far and wide..."
G|-------|-------|-------|-------|
D|-------|-------|-------|-------|
A|-------|-3-----|-------|-------|
E|-5-----|-------|-3-----|-5-----|

G|-------|-------|-------|-------|
D|-------|-------|-------|-------|
A|-------|-3-----|-------|-5-----|
E|-5-----|-------|-3-----|-------|


[Pre chorus]
 "Some may be from showing up..."
G|-------|-------|-------|-------|
D|-------|-------|-------|-------|
A|-3-----|-------|-5-----|-------|
E|-------|-3-----|-------|-5-----|

G|-------|-------|-------|-------|
D|-------|-------|-------|-------|
A|-3-----|-------|-5-----|-------|
E|-------|-3-----|-------|-------|


[Chorus]
 "In a rose tattoo.."
G|-------|-------|-------|-------|
D|-------|-------|-------|-------|
A|-------|-3-----|-5-----|-------|
E|-5-----|-------|-------|--3-5--|


[Interlude]
G|-------|-------|-------|-------|
D|-------|-------|-------|-------|
A|-------|-3-----|-------|-------|
E|-5-----|-------|-3-----|-5-----|


[Verse]
 "This ones for the mighty sea..."
G|-------------|-------5-----|-------------|-------------|
D|-------------|----5-----5--|-------------|-------------|
A|----7-----7--|-3-----------|----5-----5--|----7-----7--|
E|-5-----5-----|-------------|-3-----3-----|-5-----5-----|

G|-------------|-------5-----|-------------|-------------|
D|-------------|----5-----5--|-------------|----7-----7--|
A|----7-----7--|-3-----------|----5-----5--|-5-----5-----|
E|-5-----5-----|-------------|-3-----3-----|-------------|


[Pre chorus]
 "Some may be from showing up..."
G|-------5-----|-------------|-------------|-------------|
D|----5-----5--|-------5-----|----7-----7--|-------------|
A|-3-----------|----5-----5--|-5-----5---5-|----7-----7--|
E|-------------|-3-----------|-------------|-5-----5-----|

G|-------------|-------------|-------------|-------------|
D|----5-----5--|-------------|----7-----7--|----7--------|
A|-3-----3-----|----5-----5--|-5-----5-----|-5-----5-----|
E|-------------|-3-----5-----|-------------|----------3--|


[Chorus]
 "In a rose tatto..."
G|-------------|-------------|-------------|-------------|
D|-------------|----5-----5--|----7-----7--|-------------|
A|----7-----7--|-3-----3-----|-5-----5-----|-5-----------|
E|-5-----5-----|-------------|-------------|----3--5-----|

G|-------------|-------------|-------------|-------------|-------------|
D|----5-----5--|-------------|----7-----7--|-------------|-------------|
A|-3-----3-----|----5-----5--|-5-----5-----|-5-----------|-------------|
E|-------------|-3-----5-----|-------------|------------1/5~~~~~~~~~~~~|


[Bridge]
 "This one means the most to me..."
G|-------------|-------5-----|-------------|-------------|
D|-------3-----|----5-----5--|-------5-----|-------7-----|
A|----3--------|-3-----------|----5--------|----7--------|
E|-1-----------|-------------|-3-----------|-5-----------|

G|-------------|-------5-----|-------------|-------------|
D|-------3-----|----5-----5--|-------5-----|-5-----5-----|
A|----3-----3--|-3-----------|----5-----5--|----5--------|
E|-1-----------|-------------|-3-----------|-------------|


[Interlude]
G|-------|-------|-------|-------|
D|-------|-------|-------|-------|
A|-------|-------|-------|-------|
E|-5----5/8------|-3-----|-5-----|


[Verse]
 "You'll always be there with me..."
G|-------|-------|-------|-------|
D|-------|-------|-------|-------|
A|-------|-------|-------|-------|
E|/5----5/8-----8\3-----3/10-----|


[Pre chorus]
 "Some may be from showing up..."
G|-------5-----|-------------|-------------|-------------|
D|----5-----5--|-------5-----|----7-----7--|-------------|
A|-3-----------|----5-----5--|-5-----5-----|----7-----7--|
E|-------------|-3-----------|-------------|-5-----5-----|

G|-------5-----|-------------|-------------|-------------|-------------|-------------|
D|----5-----5--|-------5-----|----7-----7--|-------------|-------------|-------------|
A|-3-----------|----5-----5--|-5-----5-----|-5-----------|-------------|-------------|
E|-------------|-3-----------|-------------|-------------|-5~~~~~~~~~~~|~~~~~~~~~~~~~|


[Chorus]
 "In a rose tattoo.."
G|-------|-------|-------|-------|
D|-------|-------|-------|-------|
A|-------|-------|-------|-------|
E|/5----5/8-----8\3-----3/5------|

G|-------|-------|-------|-------|
D|-------|-------|-------|-------|
A|-------|-------|-------|-------|
E|/5----5/8-----8\3-----3/5------|

G|-------|-------|-------|-------|
D|-------|-------|-------|-------|
A|-------|-------|-------|-------|
E|/8----8/3-----3\10---10/5------|

G|-------|-------|-------|-------|
D|-------|-------|-------|-------|
A|-------|-------|-------|-------|
E|/8----8/3-----3\10-----|-------|

[Outro]
 (Faster)
G|-------------|-------------|-------------|-------------|
D|-------------|-------------|-------------|-------------|
A|-------------|-------------|-------------|-------------|
E|-------------|------------3/5~~~~~~~~~~~~|~~~~~~~~~~~~~|

G|-------------|-------5-----|-------------|-------------|
D|-------------|----5-----5--|-------5-----|-------------|
A|----7-----7--|-3-----------|----5-----5--|----7-----7--|
E|-5-----5-----|-------------|-3-----------|-5-----5-----|

G|-------------|-------5-----|-------------|-------------|
D|-------------|----5-----5--|-------5-----|-------------|
A|----7-----7--|-3-----------|----5-----5--|----7-----7--|
E|-5-----5-----|-------------|-3-----------|-5-----5-----|

G|-------5-----|-------------|-------------|-------------|
D|----5-----5--|-------5-----|----7-----7--|-------------|
A|-3-----------|----5-----5--|-5-----5-----|----7-----7--|
E|-------------|-3-----------|-------------|-5-----5-----|

                                           |1.           |2.
G|-------5-----|-------------|-------------|-------------|-------------|
D|----5-----5--|-------5-----|----7-----7--|-------------|-------------|
A|-3-----------|----5-----5--|-5-----5-----|----7-----7--|-5-----------|
E|-------------|-3-----------|-------------|-5-----5-----|-------------|


************************************

| /   Slide up
| \   Slide down
| ~   Vibrato

************************************
Suggest correction
Give kudos to tab author, rate the tab!
1 2 3 4 5
comments
print report bad tab
1 comment total.
0 reply
B.C.RichRulz 331 Nov 25, 2016 01:33 AM

this is awesome, thanks

guest
You may want to rate the tab now too:
select rating
Wanna post a correction for this tab? Suggest correction