Oops, an error
Loading. Please wait.

Spicy Mchaggis Jig bass

version 3
version 3

Whole song

Interactive

921 views 1 this week
1 commentread comment
1 2 3 4 5
x 3
add to favorites
×
Save as Personal and add changes to this tab that will be seen only by you. Learn more ›
×
You can save this tab as Personal to edit and correct it or add notes. All changes will be seen only by you. Learn more »
launch autoscroll
font size
0
reset
guitar tuner
edit
Autoscroll
slow
fast
+/-
esc
set tempo
stop
Difficulty
I used the guitar tab by Luke Ellis for the format because his sounded right and i dont 
like typing out all the lines and stuff

~=let the chord ring
 h=Hammer on

bagpipes start the song off
Intro;


G-----------------------------------------|
D-----------------------------------------|
A-----------------------------8-6---------|
E--4h6~---4h6~---4h6~---4h6~-------6------|


Verse: X2

G-------------------------------------|
D-------------------------------------|
A-------------666---------6--4--------|
E-666-444-666-----666-444-------6-----|

Chorus: X2


G------------------------------------------------|
D------------------------------------------------|
A-----6666---------8888-----6666-8888------------|
E-6666----6666---------6666-------------6666-----|

Verse: X2

G-------------------------------------|
D-------------------------------------|
A-------------666---------6--4--------|
E-666-444-666-----666-444-------6-----|

Chorus: X2


G------------------------------------------------|
D------------------------------------------------|
A-----6666---------8888-----6666-8888------------|
E-6666----6666---------6666-------------6666-----|

Interlude
the boyz shout SPICY!! SPICY! SPICY!


G---------------------------|
D---------------------------|
A----------------8--6-------|
E--4h6~---4h6~--------6-----|

Chorus/outro: X2 play until end


G------------------------------------------------|
D------------------------------------------------|
A-----6666---------8888-----6666-8888------------|
E-6666----6666---------6666-------------6666-----|

            
            
Suggest correction
Creating personal tab
Creating personal tab
You can edit any tab online and save it as your Personal.

You can edit, replace or remove any tab part or add personal notes – all changes will be seen only by you.

Personal tabs can be accessed anytime from any device, even offline.
Learn more »
Give kudos to tab author, rate the tab!
1 2 3 4 5
comments
print report bad tab
1 comment total.
0 reply
lucas.dupuis 41 Sep 15, 2016 10:53 AM

Great ! Such a good punk song !

guest
Wanna post a correction for this tab? Suggest correction