Oops, an error
Loading. Please wait.

State Of Massachusetts Tab

version 1
version 1

Whole song

Interactive

184,975 views 99 this week
9 commentsread comments
1 2 3 4 5
accurate
x 17
add to favorites
launch autoscroll
font size
0
reset
how to read this tab
guitar tuner
Autoscroll
slow
fast
+/-
esc
set tempo
stop
Help us to improve Ultimate-Guitar.com Take our survey!
×
Difficulty
novice
This intro is played on a banjo, but it sounds fine on an acoustic guitar,
just play the note as close to the bridge as possible.


e|----------------------------------------------------------------------------------|
B|----------------------------------------------------------------------------------|
G|-7-7-7---7---2---0---------------0---2--------------------------------------------|
D|-----------------------3---3-3----------------------------------------------------| x2
A|-----------------------------------------3---3-3---0---3---5-5-5-5----------------|
E|----------------------------------------------------------------------------------|


e|----------------------------------------------------------------------------------|
B|---------------------6---6-6---5--------------------------------------------------|
G|-7---7-7---2---0-------------------7-----5-5-5-5-------5-----7-7-7-7--------------|
D|---------------------------------------------------7------------------------------|
A|----------------------------------------------------------------------------------|
E|----------------------------------------------------------------------------------|


Now here there is some low note picking between each high
note but I cannot make it out

e|--------------5----------------------|
B|------5---6-------8---6---5----------|
G|--7----------------------------------|
D|-------------------------------------|
A|-------------------------------------|
E|-------------------------------------|
Suggest correction
comments
print report bad tab
9 comments total. Showing first comments.
0 reply
Zoso68 272 wrote on September 20 2007, 09:27 pm

saw em tonite...its perfect, spot on

+1 reply
El Fisho 10 wrote on October 3 2007, 03:15 pm

right on the money bro, perfect tab

0 reply
Wheresmypeanuts 10 wrote on October 4 2007, 01:16 am

OMFG thank u been lookin for this tab for days bro u dont even kno thanks man

guest
You may want to rate the tab now too:
select rating
Please do not post tabs as comments. Select "correction" instead!