Oops, an error
Loading. Please wait.

The Battle Rages On Tab

version 1
version 1

Whole song

Interactive

714 views 6 this week
no commentswrite comment
1 2 3 4 5
please rate
add to favorites
launch autoscroll
font size
0
reset
how to read this tab
guitar tuner
Autoscroll
slow
fast
+/-
esc
set tempo
stop
Help us to improve Ultimate-Guitar.com Take our survey!
×
-----------------------------------------------------------------------------
                             Dropkick Murphys - The Battle Rages On
-----------------------------------------------------------------------------
Tabbed by: RiseAgainst593

My cover of this song: http://youtu.be/5Zs3Plp69Lg


Tuning: E-Standard


Main Riff:

Guitar 1:

e|--------------------------------------------------------------------------|
B|--------------------------------------------------------------------------|
G|---------------------9-9-9999---------------------------------------------|
D|-7-7-7777--7-7-7777--9-9-9999--9-9-9999-----------------------------------|
A|-7-7-7777--7-7-7777--7-7-7777--9-9-9999-----------------------------------|
E|-5-5-5555--5-5-5555------------7-7-7777-----------------------------------|

e|--------------------------------------------------------------------------|
B|--------------------------------------------------------------------------|
G|--------------------------------------------------------------------------|
D|-7-7-7777--7-7-7777--2-2-2222--9-9-9999-----------------------------------|
A|-7-7-7777--7-7-7777--2-2-2222--9-9-9999-----------------------------------|
E|-5-5-5555--5-5-5555--0-0-0000--7-7-7777-----------------------------------|

Guitar 2:

e|--------------------------------------------------------------------------|
B|-----------------9-7---7-9-10-9-7-----------------------------------------|
G|-9-8-6---6-8-6-------9----------------------------------------------------|
D|-------9-------9----------------------------------------------------------|
A|--------------------------------------------------------------------------|
E|--------------------------------------------------------------------------|

e|--------------------------------------------------------------------------|
B|-----------------9-7---7--------------------------------------------------|
G|-9-8-6---6-8-6-------9---8------------------------------------------------|
D|-------9-------9----------------------------------------------------------|
A|--------------------------------------------------------------------------|
E|--------------------------------------------------------------------------|

Guitar 3:

e|--------------------------------------------------------------------------|
B|--------------------------------------------------------------------------|
G|-----------------16-16-16-------------------------------------------------|
D|-14-----------------------16----------------------------------------------|
A|--------------------------------------------------------------------------|
E|--------------------------------------------------------------------------|

e|--------------------------------------------------------------------------|
B|--------------------------------------------------------------------------|
G|-----------------16-16-16-16----------------------------------------------|
D|--14----------------------------------------------------------------------|
A|--------------------------------------------------------------------------|
E|--------------------------------------------------------------------------|

Verse:

e|--------------------------------------------------------------------------|
B|--------------------------------------------------------------------------|
G|--------------------------------------------------------------------------|
D|-9-xxxxxxxxxxxx-7-9-xxxxxxxxxxxx-7-9-xxxxxxxxxxxx-7-9-9-9-9---/////////---|
A|-9-xxxxxxxxxxxx-7-9-xxxxxxxxxxxx-7-9-xxxxxxxxxxxx-7-9-9-9-9---pickslide---|
E|-7-xxxxxxxxxxxx-5-7-xxxxxxxxxxxx-5-7-xxxxxxxxxxxx-5-7-7-7-7---/////////---|

Chorus:

e|--------------------------------------------------------------------------|
B|--------------------------------------------------------------------------|
G|--------------------------------------------------------------------------|
D|-2-2-2222--2-2-2222--7-7-7777--9-9-9999-----------------------------------|
A|-2-2-2222--2-2-2222--7-7-7777--9-9-9999-----------------------------------|
E|-0-0-0000--0-0-0000--5-5-5555--7-7-7777-----------------------------------|

Bridge:

Guitar 1:

e|--------------------------------------------------------------------------|
B|--------------------------------------------------------------------------|
G|--------------------------------------------------------------------------|
D|-9----------------7--9---------9-9-9-9------------------------------------|
A|-9----------------7--9---------9-9-9-9------------------------------------|
E|-7----------------5--7---------7-7-7-7------------------------------------|

e|--------------------------------------------------------------------------|
B|--------------------------------------------------------------------------|
G|---------------------9-9-9999---------------------------------------------|
D|-7-7-7777--7-7-7777--9-9-9999--9-9-9999-----------------------------------|
A|-7-7-7777--7-7-7777--7-7-7777--9-9-9999-----------------------------------|
E|-5-5-5555--5-5-5555------------7-7-7777-----------------------------------|

e|--------------------------------------------------------------------------|
B|--------------------------------------------------------------------------|
G|--------------------------------------------------------------------------|
D|-7-7-7777--7-7-7777--2-2-2222--9-9-9999-----------------------------------|
A|-7-7-7777--7-7-7777--2-2-2222--9-9-9999-----------------------------------|
E|-5-5-5555--5-5-5555--0-0-0000--7-7-7777-----------------------------------|

Guitar 2:

e|--------------------------------------------------------------------------|
B|--------------------------------------------------------------------------|
G|--------------------------------------------------------------------------|
D|-16--------------14-16---------/////////----------------------------------|
A|-------------------------------pickslide----------------------------------|
E|-------------------------------/////////----------------------------------|

e|-----------------16-14----14-16-17-16-14----------------------------------|
B|-17-17-17-17-17--------17-------------------------------------------------|
G|--------------------------------------------------------------------------|
D|--------------------------------------------------------------------------|
A|--------------------------------------------------------------------------|
E|--------------------------------------------------------------------------|

e|--------------------------------------------------------------------------|
B|-17-17-17-17-17-----------------------------------------------------------|
G|-----------------16-16-16-------------------------------------------------|
D|--------------------------16----------------------------------------------|
A|--------------------------------------------------------------------------|
E|--------------------------------------------------------------------------|


Enjoy playing!
Suggest correction
Give kudos to tab author, rate the tab!
1 2 3 4 5
comments
print report bad tab
guest
You may want to rate the tab now too:
select rating
Wanna post a correction for this tab? Suggest correction