Oops, an error
Loading. Please wait.

Warriors Code bass

1,984 views 3 this week
1 commentread comment
1 2 3 4 5
1 last vote to show rating
add to favorites
×
Save as Personal and add changes to this tab that will be seen only by you. Learn more ›
×
You can save this tab as Personal to edit and correct it or add notes. All changes will be seen only by you. Learn more »
launch autoscroll
font size
0
reset
guitar tuner
edit
Autoscroll
slow
fast
+/-
esc
set tempo
stop
Difficulty
intermediate
Intro:
G |---------------------------|
D |---------------------------|
A |-5555-5555-5555-5555-5555--|
E |---------------------------|

G|----------------------------------------------------------------------|
D|---------------------------------567-777777-5-555555------------------|x2
A|----------------345-5555555-5555---------------------5-555555-5-------|
E|5-555555-3-3333-------------------------------------------------2-3-4-|

Verse 1: 
G|--------------------------------------|	
D|--------------------------------------| x3	
A|-------------------5-555555-5-555555--| 	
E|-5-555555-3-333333--------------------|  

G|---------------------------------------------------------------------|
D|----------5-555555-7-777777-7-777777---------------------------------|
A|-5-555555----------------------------5555---------------5555---------|
E|------------------------------------------3333-55555555------3333-5--|

Verse 2:
G|-----------------------------------------------------------------------|
D|---------------------------------567-777777-5-555555-------------------|x2
A|----------------345-5555555-5555---------------------5-555555-5-555555-|
E|5-555555-3-3333--------------------------------------------------------|

Interlude:
G|---------------------------------------|
D|-------------------7-7777777-7-777777--|
A|----------5-555555---------------------|
E|-3-333333------------------------------|

Pre-Chorus:
G|-------------------------------------------------------------------------|
D|-5-555555----------------------------------------------7-777777-7-777777-|
A|----------5-555555----------------------------5-555555-------------------|
E|-------------------5-555555-5-555555-3-333333----------------------------|

Chorus:
G|--------------------|      G|--------------------------------|
D|--------------------|x3    D|------5555-77777777-------------|
A|-5555---------------|      A|-5555---------------5555--------|
E| ----3333-55555555--|      E|-------------------------3333-5-|


Bridge:
G|------------------|
D|------------------|
A|-----------5------|
E|--5---5-------55--|

Chorus/Outro:
G|-----------------------------------------------------------------|
D|---------------------5555--------------------------5555-77777777-|x2
A|5555-------------5555------------5555----------5555--------------|
E|----3333-55555555--------55555555----3333-55555------------------|

G|-----------------------------------------------------------------|
D|------------------------5555-------------------------------------|
A|-5555--------------5555---------------5555------------5----------|
E|-----3333-55555555-----------55555555------3333-55555---3--5--5--|

            
            
Suggest correction
Creating personal tab
Creating personal tab
You can edit any tab online and save it as your Personal.

You can edit, replace or remove any tab part or add personal notes – all changes will be seen only by you.

Personal tabs can be accessed anytime from any device, even offline.
Learn more »
Give kudos to tab author, rate the tab!
1 2 3 4 5
comments
print report bad tab
1 comment total.
0 reply
andreaslie 114 Sep 13, 2010 12:16 PM

i think you got it wrong. these tabs are a half note lower, if you push everything 1 fret up on the fret board it sounds right.

guest
Wanna post a correction for this tab? Suggest correction