Oops, an error
Loading. Please wait.

Your Spirits Alive Tab

870 views 6 this week
no commentswrite comment
1 2 3 4 5
2 more votes to show rating
add to favorites
launch autoscroll
font size
0
reset
how to read this tab
guitar tuner
Autoscroll
slow
fast
+/-
esc
set tempo
stop
Help us to improve Ultimate-Guitar.com Take our survey!
×
Your Spirits Alive By: Dropkick Murphys.

Bagpipe intro:

First note fades in first time.
E|---------1--1-----------------------------------|
B|---------------4--3--1--1--3--1--4--4--3--1-----|
G|---3--3--------------------------------------3--|
D|------------------------------------------------|
A|------------------------------------------------|
E|------------------------------------------------|

Interlude:

   F       Bb      Eb      Bb
E|---------------------------------|
B|---------------------------------|
G|-----------------3-3-3-3---------|
D|---------3-3-3-3-1-1-1-1-3-3-3-3-|
A|-3-3-3-3-1-1-1-1---------1-1-1-1-|
E|-1-1-1-1-------------------------|

Verse:

   F             Bb            Eb            Bb
E|---------------------------------------------------------|
B|---------------------------------------------------------|
G|-----------------------------3-3-3-3-3-3-3---------------|
D|---------------3-3-3-3-3-3-3-1-1-1-1-1-1-1-3-3-3-3-3-3-3-|
A|-3-3-3-3-3-3-3-1-1-1-1-1-1-1---------------1-1-1-1-1-1-1-|
E|-1-1-1-1-1-1-1-------------------------------------------|

Chorus:

   Ab              Eb
E|---------------------------------|
B|---------------------------------|
G|---------------------------------|
D|-----------------8-8-8-8-8-8-8-8-|
A|-6-6-6-6-6-6-6-6-6-6-6-6-6-6-6-6-|
E|-4-4-4-4-4-4-4-4-----------------|

   Bb              F        Bb F  Ab
E|----------------------------------|
B|----------------------------------|
G|----------------------------------|
D|--------------------------3-------|
A|-8-8-8-8-8-8-8-8-3-3-3-3--1--3--6-|
E|-6-6-6-6-6-6-6-6-1-1-1-1-----1--4-|

   Ab              Eb
E|---------------------------------|
B|---------------------------------|
G|---------------------------------|
D|-----------------8-8-8-8-8-8-8-8-|
A|-6-6-6-6-6-6-6-6-6-6-6-6-6-6-6-6-|
E|-4-4-4-4-4-4-4-4-----------------|

   F
E|---------------------|
B|---------------------|
G|---------------------|
D|---------------------|
A|-3-3-3-3-3-3-3-3--3--|
E|-1-1-1-1-1-1-1-1--1--| hold last chord.

Bridge:

    F         Eb Bb
E|--------------------|
B|--------------------|
G|------------3-------|
D|------------1--3----|
A|--3----3-------1----|
E|--1----1------------|

Outro:

     F   Bb  Eb               F   Bb  Eb  Bb  F
E|----------------------   -----------------------|
B|----------------------   -----------------------|
G|-----------3----------   -----------3-----------|
D|-------3---1----------   -------3---1---3-------|
A|---3---1-----------1--   ---3---1-------1---3---|
E|---1-----------1-4----X3 ---1---------------1---|

By: themechanix100
Suggest correction
Give kudos to tab author, rate the tab!
1 2 3 4 5
comments
print report bad tab
guest
You may want to rate the tab now too:
select rating
Wanna post a correction for this tab? Suggest correction