Oops, an error
Loading. Please wait.

Cupid Found His Mark tab

2,369 views 1 this week
no commentswrite comment
1 2 3 4 5
3 more votes to show rating
add to favorites
×
Save as Personal and add changes to this tab that will be seen only by you. Learn more ›
×
You can save this tab as Personal to edit and correct it or add notes. All changes will be seen only by you. Learn more »
launch autoscroll
font size
0
reset
how to read this tab
guitar tuner
edit
Autoscroll
slow
fast
+/-
esc
set tempo
stop
Author
Difficulty
-------------------------------------------------------------------------------
                             CUPID FOUND HIS MARK - Dropout Year
-------------------------------------------------------------------------------
Tabbed by: guitarplyr26
Email: chrisbish@pacbell.net

Tuning: standard [EAGDBe]

This is only the lead part for the intro/chorus and the picking part for the prechorus, 
haven't been able to tab the chords to the song yet and all the tabs I see only have the 
(most of which are wrong) so this is the other part. It's really easy, but still sounds cool.
Lead/picking part for the chorus:
"cupid found his mark, shot his arrow through our hearts. said he planned it from the 
my valentine."
|-0---0---0---0---------------------------------------------------|
|-----------------3---3---3---3---2---2---2---2---2---2---0---0---|
|---2---2---2---2---2---2---2---2---2---2---2---2---2---2---2---2-|
|-----------------------------------------------------------------|
|-----------------------------------------------------------------|
|-----------------------------------------------------------------|
"I'll kiss every scar that's been planted on your heart, and love you for who you are, 
valentine."
|-0---0---0---0---------------------------------------------------|
|-----------------3---3---3---3---2---2---2---2---2---2---0---0---|
|---2---2---2---2---2---2---2---2---2---2---2---2---2---2---2---2-|
|-----------------------------------------------------------------|
|-----------------------------------------------------------------|
|-----------------------------------------------------------------|
This is the picking part for the prechorus:
"from my heart to yours, i've never sang like this before..."
|-----0---------------0---------------0---------------0-----------|
|---0-----3---2-----0-----3---2-----0-----3---2-----0-----3---2---|
|-2-----2---2---2-2-----2---2---2-2-----2---2---2-2-----2---2---2-|
|-----------------------------------------------------------------|
|-----------------------------------------------------------------|
|-----------------------------------------------------------------|
Picking part for the end of the bridge:
"I'm not the flowers and candy kind of guy, I won't lie. I'll write this song with our 
across the sky."
|---------0---------------0---------------0-----------------------|
|-2---3-------3---2---3-------3---2---3-------3---2---2---3---2---|
|---2---2---2---2---2---2---2---2---2---2---2---2---2---2---2---2-|
|-----------------------------------------------------------------|
|-----------------------------------------------------------------|
|-----------------------------------------------------------------|

Song Order:
Intro
Verse
Prechorus
Chorus
2nd Verse
Chorus
Bridge
Chorus
Chorus

| /  slide up
| \  slide down
| h  hammer-on
| p  pull-off
| ~  vibrato
| +  harmonic
| x  Mute note
===============================================================================

            
            
Suggest correction
Creating personal tab
Creating personal tab
You can edit any tab online and save it as your Personal.

You can edit, replace or remove any tab part or add personal notes – all changes will be seen only by you.

Personal tabs can be accessed anytime from any device, even offline.
Learn more »
Give kudos to tab author, rate the tab!
1 2 3 4 5
comments
print report bad tab
guest
You may want to rate the tab now too:
select rating
Wanna post a correction for this tab? Suggest correction