Oops, an error
Loading. Please wait.

Tell Me tab

977 views 1 this week
3 commentsread comments
1 2 3 4 5
x 3
add to favorites
×
Save as Personal and add changes to this tab that will be seen only by you. Learn more ›
×
You can save this tab as Personal to edit and correct it or add notes. All changes will be seen only by you. Learn more »
launch autoscroll
font size
0
reset
how to read this tab
guitar tuner
edit
Autoscroll
slow
fast
+/-
esc
set tempo
stop
Dropping Daylight - Tell Me

Tuning: Drop D

Great song here; best of the CD, which isnt really spectacular,
but worth owning.

INTRO
Guitar 1 - 6x
e|------------------------------------------------|
B|------------------------------------------------|
G|------------------------------------------------|
D|------------------------------------------------|
A|------------------------------------------------|
D|10-12-12-10-12-12-10-12-12-10-12-12-10-12-12-12-|

Guitar 2 - 4x
e|--------------------------|
B|--------------------------|
G|10--1010-10--10-10--1010--|
D|9---9-9--9---9--9---9-9---|
A|8---8-8--8---8--8---8-8---|
D|--------------------------|

NOTE: the above chord could also be played as follows..
e|----------|
B|-6--------|
G|-5--------|
D|-4--------|
A|-5--------|
D|----------|

VERSE
Guitar 2 - 8x
Slight Palm Mute
e|------------------------|
B|------------------------|
G|14-1414-14-14-14-1414---|
D|------------------------|
A|------------------------|
D|------------------------|

PRE-CHORUS
Guitar 1 - Palm Mute
e|---------------------------------|
B|---------------------------------|
G|---------------------------------|
D|---------------------------------|
A|---------------------------------|
D|00000000000000002222222233333333-|

Guitar 1
         v-gradually release PM until
e|----------------------------------|
B|----------------------------------|
G|----------------------------------|
D|----------------------------------|
A|----------------------------------|
D|00000000000000002222222233333333--|

CHORUS
Both measures played 2x
Guitar 1
e|-----------------------------------------------|
B|-----------------------------------------------|
G|-----------------------------------------------|
D|101212101212101212101212---33333333-55555555---|
A|101212101212101212101212-0-33333333-55555555---|
D|101212101212101212101212-0-33333333-55555555---|

Guitar 1 - slightly different than above!
e|--------------------------------------------------|
B|--------------------------------------------------|
G|--------------------------------------------------|
D|1012121012121012-121210121210---33333333-55555555-|
A|1012121012121012-121210121210-0-33333333-55555555-|
D|1012121012121012-121210121210-0-33333333-55555555-|

VERSE
PRE-CHORUS
CHORUS

BRIDGE
Guitar 2 - 6x throughout BRIDGE
e|------------------------|
B|------------------------|
G|14-1414-14-14-14-1414---|
D|------------------------|
A|------------------------|
D|------------------------|

Guitar 1 - comes in after above riff played twice.
e|-----0-----|
B|-----0-----|
G|-----------|
D|-----------|
A|-----------|
D|-3---------|

Guitar 1
e|----------------------------------------------------------------|
B|----------------------------------------------------------------|
G|----------------------------------------------------------------|
D|----------------------------------------------------------------|
A|000000000000000222222222222222233333333333333335555555555555555-|
D|000000000000000222222222222222233333333333333335555555555555555-|

Guitar 2 - played after 6th time as single note riff
e|--------------------------------|
B|-------13-(6x)-18 (8x)----------|
G|--------------------------------|
D|--------------------------------|
A|--------------------------------|
D|--------------------------------|

Guitar 1 - 2x
e|------------------------------------------------|
B|------------------------------------------------|
G|------------------------------------------------|
D|------------------------------------------------|
A|------------------------------------------------|
D|10-12-12-10-12-12-10-12-12-10-12-12-10-12-12-12-|

CHORUS

OUTRO
Guitar 1 - 8x
e|--------------------------|
B|--------------------------|
G|10--1010-10--10-10--1010--|
D|9---9-9--9---9--9---9-9---|
A|8---8-8--8---8--8---8-8---|
D|--------------------------|

Guitar 2 - 8x
e|--------------------------|
B|--------------------------|
G|--------------------------|
D|--------------------------|
A|--------------------------|
D|0000000000000000----------|

            
            
Suggest correction
Creating personal tab
Creating personal tab
You can edit any tab online and save it as your Personal.

You can edit, replace or remove any tab part or add personal notes – all changes will be seen only by you.

Personal tabs can be accessed anytime from any device, even offline.
Learn more »
Give kudos to tab author, rate the tab!
1 2 3 4 5
comments
print report bad tab
3 comments total.
0 reply
rock_boy 30 Nov 09, 2006 11:08 AM

Awesome tab! My dad filmed them for his show Music With Pete, it looks right on the money.

0 reply
AcdcTXfan 288 Dec 03, 2006 01:52 PM

Great tab, 5 stars. I saw their concert here in Amarillo a few weeks ago. It was outside of a Hastings store downtown. They played 8 songs for a total of like 35 minutes. I thought they were excellent. I even got their autographs after the show. They played this song and now this is my favorite one.

0 reply
rock_boy 30 Dec 05, 2006 05:55 AM

yup, its perfect, my band is going to play this at our shows

guest
You may want to rate the tab now too:
select rating
Wanna post a correction for this tab? Suggest correction