Oops, an error
Loading. Please wait.

You Keep Showing Up Tab

7 views 3 this week
no commentswrite comment
1 2 3 4 5
3 more votes to show rating
add to favorites
launch autoscroll
font size
0
reset
how to read this tab
guitar tuner
Autoscroll
slow
fast
+/-
esc
set tempo
stop
Help us to improve Ultimate-Guitar.com Take our survey!
×
Author
Difficulty
Capo
intermediate
2nd fret
Link to Matt Hitt performing the song here:
https://www.youtube.com/watch?v=wa9cqCeEbMs

Capo on 2.

Standard Tuning.


INTRO

     G      Em        Am     
E|--------------------0----2------|
B|---3p1p0------------1----1------|
G|---0-----0-2p0---0--0----2------|  Repeat x3
D|---0-----------2----2----0------|
A|---2----------------0-----------|
E|---3----------------0-----------|

At the end of the third progression finish with

E|---3---3----3---------|
B|---0---0h1--0---------|
G|---0---0----0---------|
D|---0---0----0---------|
A|---2---2----2---------|
E|---3---3----3---------|

VERSE

'You came along in the arms of another'

     G    Em   G   Em   Am7   C   Am7   C   D7
E|---3----0----3----0----0----0----0----0----2-----|
B|---0----0----0----0----1----1----1----1----1-----|
G|---0----0----0----0----0----0----0----0----2-----| 
D|---0----2----0----2----2----2----2----2----0-----|
A|---2----2----2----2----0----3----0----3----0-----|
E|---3----0----3----0----0----0----0----0----0-----|

At the end of each verse he plays the intro melody. 

Finish on G.


h - hammer on
      p - pull off
      b - bend string up
      r - release bend
      / - slide up
      \ - slide down
      v - vibrato (sometimes written as ~)
      t - tap (with strumming hand)
      x - mute string
Suggest correction
Give kudos to tab author, rate the tab!
1 2 3 4 5
comments
print report bad tab
guest
You may want to rate the tab now too:
select rating
Wanna post a correction for this tab? Suggest correction