Oops, an error
Loading. Please wait.

All Over Me Tab

version 2
version 2

Whole song

Interactive

5,423 views 1 this week
no commentswrite comment
1 2 3 4 5
accurate
x 7
add to favorites
launch autoscroll
font size
0
reset
how to read this tab
guitar tuner
Autoscroll
slow
fast
+/-
esc
set tempo
stop
Help us to improve Ultimate-Guitar.com Take our survey!
×
Author
Intro:
-------------------------------|
-------------------------------|
-----------------------9-9-9---|
---9----10----9----10----------|
-----------------------7-7-7---|
---7----8-----7----8-----------|

Verse:
---------------------------------------------------|
---------------------------------------------------|
---------------------------------------------------|
---2-x-2---3-x-3---x-x-x---2-x-2---5-x-x-5-x-x-5---|
---2-x-2---3-x-3---x-x-x---2-x-2---5-x-x-5-x-x-5---|
---2-x-2---3-x-3---x-x-x---2-x-2---5-x-x-5-x-x-5---|

Pre-chorus:
--------------------------------------------|
--------------------------------------------|
--------------------------------------------|
---2--2-2-2--3--3-3-3--2--2-2-2--5--5-5-5---|
---2--2-2-2--3--3-3-3--2--2-2-2--5--5-5-5---|
---2--2-2-2--3--3-3-3--2--2-2-2--5--5-5-5---|

guitar 2:
---------------------------------------|
---------------------------------------|
---------------------------------------|
---------------7-------------------7---|
---9-9-9-9-9-9---10-10-10-10-10-10-----|
---------------------------------------|

Chorus:
----------------------------------|
----------------------------------|
--------------------------9-9-9---|
---7--9-9-9---8--10-10-10---------|
---7----------8-----------7-7-7---|
---7--7-7-7---8--8--8--8----------|
please rate
Suggest correction
comments
print report bad tab
guest
You may want to rate the tab now too:
select rating
Wanna post a correction for this tab? Suggest correction