Oops, an error
Loading. Please wait.

Bodies Tab

version 2
version 2
74,804 views 42 this week
11 commentsread comments
1 2 3 4 5
x 14
add to favorites
launch autoscroll
font size
0
reset
how to read this tab
guitar tuner
Autoscroll
slow
fast
+/-
esc
set tempo
stop
Help us to improve Ultimate-Guitar.com Take our survey!
×
Author
Difficulty
[Intro]
Moderately Fast Rock Q=128
  4/4
(Gtrs 1, 2, 3)
   Wx4            E S S S S E +E  E Q    E S S S S E +S  S S S E E
e|------------|-----------------------|----------------------------|
B|------------|o----------------------|---------------------------o|
G|------------|--7-7-7-7-7------------|----------------------------|
D|------------|--x-x-x-x-x-6-(6)-6-6--|-0-0-0-0-0-6-(6)-6-6-6-3-0--|
A|------------|o-5-5-5-5-5-6-(6)-6-6--|-0-0-0-0-0-6-(6)-6-6-6-3-0-o|
E|------------|------------6-(6)-6-6--|-0-0-0-0-0-6-(6)-6-6-6-3-0--|

(Gtrs 2, 3)
    E  S  S  S  S  E  +S   S  S  S  S  S  S  S
e|---------------------------------------------|
B|-15-15-15-15-15-15-(15)-15-15-15-15-15-15-15-|
G|-14-14-14-14-14-14-(14)-14-14-14-14-14-14-14-|
D|-12-12-12-12-12-12-(12)-12-12-12-12-12-12-12-|
A|--x------------------------------------------|
E|--0------------------------------------------|

    E  S  S  S  S  E  +S   S  S  S  S  S  E
e|------------------------15-15-15-15-15-15-|
B|-15-15-15-15-15-15-(15)-15-15-15-15-15-15-|
G|-14-14-14-14-14-15-(15)-15-15-15-15-15-15-|
D|-12-12-12-12-12---------------------------|
A|--x---------------------------------------|
E|--0---------------------------------------|
                                                                                            $
    W                                             E  S  S +S   S  E  +E      S  S  Q

e|---------------------------------------------|--------------------------------------------|
B|---------------------------------------------|--------------------------------------------|
G|---------------------------------------------|--7--x--8-(8)--x-10-(10)----12-12-12\-------|
D|--0------------------------------------------|--x--x--x------x--x----------x--x--x\-------|
A|--0------------------------------------------|--5--x--6-(6)--x--8--(8)----10-10-10\-------|
E|--0------------------------------------------|--------------------------------------------|

Gtrs 2, 3
   E  S  S  S  S  E  +S   S  S  S  S  S  S  S    E  S  S  S   S  E  +S   S  S  S  S   S  E
e|---------------------------------------------|-------------------------15-15-15-15--15-15-|
B|-15-15-15-15-15-15-(15)-15-15-15-15-15-15-15-|-15-15-15-15--15-15-(15)-15-15-15-15--15-15-|
G|-14-14-14-14-14-14-(14)-14-14-14-14-14-14-14-|-14-14-14-14--14-15-(15)-15-15-15-15--15-15-|
D|-12-12-12-12-12-12-(12)-12-12-12-12-12-12-12-|-12-12-12-12--12----------------------------|
A|--x------------------------------------------|--x-----------------------------------------|
E|--0------------------------------------------|--0-----------------------------------------|

   PM------------------------------------|
   E.     S  E     E   E      E     E     E

e|-----------------------------------------------|
B|-----------------------------------------------|
G|-----------------------------------------------|
D|--0------0--1-----0----------0-----1-----3-----|
A|--0------0--1-----0----------0-----1-----3-----|
E|--0------0--1-----0----------0-----1-----3-----|

   E   S  S  S  S  E  +S   S  S  S  S  S  S  S
e|-----------------------------------------------|
B|-15--15-15-15-15-15-(15)-15-15-15-15-15-15-15--|
G|-14--14-14-14-14-14-(14)-14-14-14-14-14-14-14--|
D|-12--12-12-12-12-12-(12)-12-12-12-12-12-12-12--|
A|--x--------------------------------------------|
E|--0--------------------------------------------|

    PM----------------------------------------
    E.     S  E     E   E      E     E     E
e|-------------------------------------------|
B|-------------------------------------------|
G|-------------------------------------------|
D|--0------0--1-----0----------0-----1-----3-|
A|--0------0--1-----0----------0-----1-----3-|
E|--0------0--1-----0----------0-----1-----3-|

    E   S  S  S  S  E  +S   S  S  S  S  S  E
e|-------------------------15-15-15-15-15-15-|
B|-15--15-15-15-15-15-(15)-15-15-15-15-15-15-|
G|-14--14-14-14-14-15-(15)-15-15-15-15-15-15-|
D|-12--12-12-12-12---------------------------|
A|--x----------------------------------------|
E|--0----------------------------------------|

 -----------------------------------------------------------------------|
   E.  S  E  E   E      E     E     E    E.     S  E  E  E     E     E  E

e|-------------------------------------|-----------------------------------|
B|-------------------------------------|-----------------------------------|
G|-------------------------------------|-----------------------------------|
D|--0---0--1--0----------0-----1-----3-|--0------0--1--0--------0-----1--3-|
A|--0---0--1--0----------0-----1-----3-|--0------0--1--0--------0-----1--3-|
E|--0---0--1--0----------0-----1-----3-|--0------0--1--0--------0-----1--3-|

   E.  S  E  E  +S   S  S  S  S  S  E    E   S  S  E  E  S  S  S  S  Q
e|-------------------------------------|-----------------15-15-15-15-15\---|
B|-15--15-15-15-(15)-15-15-15-15-15-15-|-15--15-15-15-15-15-15-15-15-15\---|
G|-14--14-14-14-(14)-14-14-14-14-14-14-|-14--14-14-14-15-15-15-15-15-15\---|
D|-12--12-12-12-(12)-12-12-12-12-12-12-|-12--12-12-12----------------------|
A|-------------------------------------|-----------------------------------|
E|-------------------------------------|-----------------------------------|

[Verses]
(Gtr 1)
PM-----------------------------------------------------------------------|
E S E E E S E E E   E. S E E E E E E   E. S E E E E E E   E. S E E E E E E

e|-------------------|------------------|------------------|-------------------|
B|-------------------|------------------|------------------|-------------------|
G|-------------------|------------------|------------------|-------------------|
D|-0-0-1-0---0-0-1-3-|-0--0-1-0---0-1-3-|-0--0-1-0---0-1-3-|-0--0-1-0---0-1-3--|
A|-0-0-1-0---0-0-1-3-|-0--0-1-0---0-1-3-|-0--0-1-0---0-1-3-|-0--0-1-0---0-1-3--|
E|-0-0-1-0---0-0-1-3-|-0--0-1-0---0-1-3-|-0--0-1-0---0-1-3-|-0--0-1-0---0-1-3--|

(Gtr 1)
    PM----------------------------------------------
    E.        S  E     E   E      E     E     E
e|-------------------------------------------------|
B|-------------------------------------------------|
G|-------------------------------------------------|
D|--0---------0--1-----0----------0-----1-----3----|
A|--0---------0--1-----0----------0-----1-----3----|
E|--0---------0--1-----0----------0-----1-----3----|

(Gtr 4)
   S   S  S  S  S  S  E  +S   S  S  S  S  S  S  S
e|-------------------------------------------------|
B|-15--15-15-15-15-15-15-(15)-15-15-15-15-15-15-15-|
G|-15--15-15-15-14-14-14-(14)-14-14-14-14-14-14-14-|
D|-------------------------------------------------|
A|-------------------------------------------------|
E|-------------------------------------------------|

 ---------------------------------|
   E. S  E  E   E      E     E     E

e|---------------------------------------|
B|---------------------------------------|
G|---------------------------------------|
D|--0--0--1--0----------0-----1-----3----|
A|--0--0--1--0----------0-----1-----3----|
E|--0--0--1--0----------0-----1-----3----|

    Q     E  E  +S   S  S  S  S  S  S  S
e|------------------15-15-15-15-15-15-15-|
B|-15----15-15-(15)-15-15-15-15-15-15-15-|
G|-14----14-15-(15)-15-15-15-15-15-15-15-|
D|---------------------------------------|
A|---------------------------------------|
E|---------------------------------------|

   PM------------------------------------------|   PM
   E. S E  E   E      E     E     E       E  S S E S S  E     S  S  Q

e|--------------------------------------|--------------------------------|
B|--------------------------------------|--------------------------------|
G|--------------------------------------|--------------------------------|
D|--0--0-1--0----------0-----1-----3----|--0--0-0-3-3-3--5-----5-/7--7\--|
A|--0--0-1--0----------0-----1-----3----|--0--0-0-3-3-3--5-----5-/7--7\--|
E|--0--0-1--0----------0-----1-----3----|--0--0-0-3-3-3--5-----5-/7--7\--|

   Q    E  E  +S   S  S  S  S  S  S  S    Q      Q      S  S  S  S  Q
e|--------------------------------------|---------------15-15-15-15-15\--|
B|-15------15-(15)-15-15-15-15-15-15-15-|-15\-----------15-15-15-15-15\--|
G|-14------14-(14)-14-14-14-14-14-14-14-|-14\-----------15-15-15-15-15\--|
D|--------------------------------------|--------------------------------|
A|--------------------------------------|--------------------------------|
E|--------------------------------------|--------------------------------|

[Pre-Chorus 1, 2]
    PM-------|              PM-------|                PM-------|
    E. S +E  E  E  E  Q     E. S +E  E  E  E  Q    3x E. S +E  E  E  E  Q

e|------------------------|------------15-15-15\---|-----------------------|
B|o------------15-15-15\--|------------15-15-15\--o|------------15-15-15\--|
G|-------------14-14-14\--|------------15-15-15\---|------------14-14-14\--|
D|--0--0-(0)-0-12-12-12\--|-0--0-(0)-0-------------|-0--0-(0)-0-12-12-12\--|
A|o-0--0-(0)-0------------|-0--0-(0)-0------------o|-0--0-(0)-0------------|
E|--0--0-(0)-0------------|-0--0-(0)-0-------------|-0--0-(0)-0------------|

[Chorus]                         
(Gtr 1)
   E S S S S E  E  E  E  E     E E E E +E  E Q     E E E E +E  E E E
e|-------------------------|--------------------|-------------------|
B|-------------------------|o-------------------|-------------------|
G|-------------------------|--7-7-7-------------|-------------------|
D|-0-0-0-0-0-0--0--0--0--0-|--x-x-x-6-(6)-6-6\--|-0-0-0-6-(6)-6-3-0-|
A|-0-0-0-0-0-0--0--0--0--0-|o-5-5-5-6-(6)-6-6\--|-0-0-0-6-(6)-6-3-0-|
E|-0-0-0-0-0-0--0--0--0--0-|--------6-(6)-6-6\--|-0-0-0-6-(6)-6-3-0-|

(Gtrs 2, 3)
   E S S S S E  E  E  Q        E E E E +E  E Q     E E E E +E  E E E
e|-------------15-15-15\---|--------------------|-------------------|
B|-------------15-15-15\---|o-------------------|-------------------|
G|-------------15-15-15\---|--7-7-7-------------|-------------------|
D|-0-0-0-0-0-0-------------|--x-x-x-6-(6)-6-6\--|-0-0-0-6-(6)-6-3-0-|
A|-0-0-0-0-0-0-------------|o-5-5-5-6-(6)-6-6\--|-0-0-0-6-(6)-6-3-0-|
E|-0-0-0-0-0-0-------------|--------6-(6)-6-6\--|-0-0-0-6-(6)-6-3-0-|


[Bridge]                                      
(Gtrs 1, 2, 3)
                                                PM--|
  E E E E +E  E Q     E E E E +E  E S S S S     S E S S S E  Q  Q
e|-------------------|------------------------|--------------------|
B|-------------------|-----------------------o|--------------------|
G|-7-7-7-------------|------------------------|--------------------|
D|-x-x-x-6-(6)-6-6\--|-0-0-0-6-(6)-6-3-3-0-0--|--------------0--0--|
A|-5-5-5-6-(6)-6-6\--|-0-0-0-6-(6)-6-3-3-0-0-o|--------------0--0--|
E|-------6-(6)-6-6\--|-0-0-0-6-(6)-6-3-3-0-0--|-3-6-3-6-3-6/-0--0--|

    PM----|   PM----|     PM--|                  PM----|   PM----|
  E E S E S E S S S S E   S E S S S E  Q  Q    E E S E S E S S S S E

e|-----------------------|--------------------|------------------------|
B|-----------------------|--------------------|------------------------|
G|-----------------------|--------------------|------------------------|
D|---0-0-0-0-0-0-0-0-0-0-|--------------0--3--|---3-3-3-3-1-1-1-1-1-1--|
A|---0-0-0-0-0-0-0-0-0-0-|--------------0--3--|---3-3-3-3-1-1-1-1-1-1--|
E|---0-0-0-0-0-0-0-0-0-0-|-3-6-3-6-3-6/-0--3--|---3-3-3-3-1-1-1-1-1-1--|

  PM------|              PM----|   PM----|
  S S S S E E  Q  Q    E E S E S E S S S S E

e|--------------------|-----------------------|
B|--------------------|-----------------------|
G|--------------------|-----------------------|
D|--------------0--0--|---0-0-0-0-0-0-0-0-0-0-|
A|--------------0--0--|---0-0-0-0-0-0-0-0-0-0-|
E|-3-6-3-6-3-6/-0--0--|---0-0-0-0-0-0-0-0-0-0-|

   S S S S S S E  Q  Q    +E  E S E S E E E E
e|----------------------|---------------------|
B|----------------------|---------------------|
G|----------------------|---------------------|
D|----------------0--3--|-(3)-3-3-3-3-1-1-1-1-|
A|----------------0--3--|-(3)-3-3-3-3-1-1-1-1-|
E|-3-3-6-3-6-3-6/-0--3--|-(3)-3-3-3-3-1-1-1-1-|

(2:20)
(Gtrs 2, 3)
    E  S  S  S  S  E  +S   S  S  S  S  S  S  S
e|----------------------------------------------|
B|-15-15-15-15-15-15-(15)-15-15-15-15-15-15-15--|
G|-14-14-14-14-14-14-(14)-14-14-14-14-14-14-14--|
D|-12-12-12-12-12-12-(12)-12-12-12-12-12-12-12--|
A|--x-------------------------------------------|
E|--0-------------------------------------------|

    E  S  S  S  S  E  +S   S  S  S  S  S  E     E  S  S  S  S  E  +S   S  S  S  S  S  S  S
e|------------------------15-15-15-15-15-15-|---------------------------------------------|
B|-15-15-15-15-15-15-(15)-15-15-15-15-15-15-|-15-15-15-15-15-15-(15)-15-15-15-15-15-15-15-|
G|-14-14-14-14-14-15-(15)-15-15-15-15-15-15-|-14-14-14-14-14-14-(14)-14-14-14-14-14-14-14-|
D|-12-12-12-12-12---------------------------|-12-12-12-12-12-12-(12)-12-12-12-12-12-12-12-|
A|--x---------------------------------------|--x------------------------------------------|
E|--0---------------------------------------|--0------------------------------------------|

(Gtr 1)
    W                                           W
e|------------------------------------------|---------------------------------------------|
B|------------------------------------------|---------------------------------------------|
G|------------------------------------------|---------------------------------------------|
D|------------------------------------------|--0------------------------------------------|
A|------------------------------------------|--0------------------------------------------|
E|------------------------------------------|--0------------------------------------------|

    E  S  S  S   S  E  +S   S  S  S  S   S  E
e|-------------------------15-15-15-15--15-15---|
B|-15-15-15-15--15-15-(15)-15-15-15-15--15-15---|
G|-14-14-14-14--14-15-(15)-15-15-15-15--15-15---|
D|-12-12-12-12--12------------------------------|
A|--x-------------------------------------------|
E|--0-------------------------------------------|

    E  S  S  S   S  E   E      S  S  Q
e|----------------------------------------------|
B|----------------------------------------------|
G|--7--x--8-(8)--x-10-(10)----12-12-12\---------|
D|--x--x--x--x---x--x---x------x--x--x\---------|
A|--5--x--6-(6)--x--8--(8)----10-10-10\---------|
E|----------------------------------------------|

(Gtr 1)
    PM-------------------------------------------------------------------------
    E. S  E  E     E     E     E     E       E.  S  E  E  E     E     E     E
e|----------------------------------------|-----------------------------------|
B|----------------------------------------|-----------------------------------|
G|----------------------------------------|-----------------------------------|
D|--0--0--1--0-----------0-----1-----3----|--0---0--1--0--------0-----1-----3-|
A|--0--0--1--0-----------0-----1-----3----|--0---0--1--0--------0-----1-----3-|
E|--0--0--1--0-----------0-----1-----3----|--0---0--1--0--------0-----1-----3-|

(Gtrs 2, 3)
   Q     E  S  S  S  S  S  S  S  S  S  S    E.  S  E  E  S  S  S  S  S  S  E
e|----------------------------------------|-----------15-15-15-15-15-15-15-15-|
B|-15----15-15-15-15-15-15-15-15-15-15-15-|-15--15-15-15-15-15-15-15-15-15-15-|
G|-14----14-14-14-14-14-14-14-14-14-14-14-|-14--14-14-15-15-15-15-15-15-15-15-|
D|-12----12-12-12-12-12-12-12-12-12-12-12-|-12--12-12-------------------------|
A|--x-------------------------------------|--x--------------------------------|
E|--0-------------------------------------|--0--------------------------------|

   -----------------------------------|
   E.  S  E  E     E     E     E     E

e|-----------------------------------------|
B|-----------------------------------------|
G|-----------------------------------------|
D|--0---0--1--0-----------0-----1-----3----|
A|--0---0--1--0-----------0-----1-----3----|
E|--0---0--1--0-----------0-----1-----3----|

   E.  S  E  S  S  S  S  S  S  S  S  S  S
e|-----------------------------------------|
B|-15--15-15-15-15-15-15-15-15-15-15-15-15-|
G|-14--14-14-14-14-14-14-14-14-14-14-14-14-|
D|-12--12-12-12-12-12-12-12-12-12-12-12-12-|
A|--0--------------------------------------|
E|--0--------------------------------------|

PM-----------------------------------------------------------------
E.  S  E  E  E     E     E  E    E.  S  E  E  E     E  E     E
e|--------------------------------|-----------------------------------|
B|--------------------------------|-----------------------------------|
G|--------------------------------|-----------------------------------|
D|--0---0--1--0--------0-----1--3-|--0---0--1--0--------0--1-----3----|
A|--0---0--1--0--------0-----1--3-|--0---0--1--0--------0--1-----3----|
E|--0---0--1--0--------0-----1--3-|--0---0--1--0--------0--1-----3----|

   E.  S  E  E  S  S  S  S  E  E    E.  S  E  E  S  S  E  S  S  S  S
e|-----------15-15-15-15-15-15----|-----------------------------------|
B|-15--15-15-15-15-15-15-15-15-15-|-15--15-15-15-15-15-15-15-15-15-15-|
G|-14--14-14-15-15-15-15-15-15-14-|-14--14-14-14-14-14-14-14-14-14-14-|
D|-12--12-12----------------------|-12--12-12-12-12-12-12-12-12-12-12-|
A|--x-----------------------------|-----------------------------------|
E|--0-----------------------------|-----------------------------------|

 --------------------------------|
   E.     S  E  E  E     E  E     E

e|--------------------------------------|
B|--------------------------------------|
G|--------------------------------------|
D|--0------0--1--0--------0--1-----3----|
A|--0------0--1--0--------0--1-----3----|
E|--0------0--1--0--------0--1-----3----|

 |  E   S  S  E  E  S  S  E  S  S  S  S
e|-----------15-15-15-15-15-15-15-15-15-|
B|-15--15-15-15-15-15-15-15-15-15-15-15-|
G|-14--14-14-15-15-15-15-15-15-15-15-15-|
D|-12--12-12----------------------------|
A|--------------------------------------|
E|--------------------------------------|

   PM---------------------------------------|         PM|
   E.  S  E  E  E     E  E     E       E  S  S  E     S  S  E     S  S  Q

e|-----------------------------------|---------------------------------------|
B|-----------------------------------|---------------------------------------|
G|-----------------------------------|---------------------------------------|
D|--0---0--1--0--------0--1-----3----|--0--0--0--3-----3--3--5-----5-/7--7\--|
A|--0---0--1--0--------0--1-----3----|--0--0--0--3-----3--3--5-----5-/7--7\--|
E|--0---0--1--0--------0--1-----3----|--0--0--0--3-----3--3--5-----5-/7--7\--|

    E.  S  E  E  S  S  E  S  S  S  S    E.    S  S  S  S  S  S  S  S  S  Q
e|-----------------------------------|----------15-15-15-15-15-15-15-15-15\--|
B|-15--15-15-15-15-15-15-15-15-15-15-|-15----15-15-15-15-15-15-15-15-15-15\--|
G|-14--14-14-14-14-14-14-14-14-14-14-|-14----14-15-15-15-15-15-15-15-15-15\--|
D|-12--12-12-12-12-12-12-12-12-12-12-|-12----12------------------------------|
A|--x--------------------------------|---------------------------------------|
E|--0--------------------------------|---------------------------------------|

[Pre-Chorus 3]
(Gtrs 1, 2, 3)
  PM-------|        PM-------|        PM-------|        PM-------|
  E. S +E  E H      E. S +E  E H      E. S +E  E H      E. S +E  E H

e|-----------------|-----------------|-----------------|-----------------|
B|-----------------|-----------------|-----------------|-----------------|
G|-----------------|-----------------|-----------------|-----------------|
D|-0--0-(0)-0------|-0--0-(0)-0------|-0--0-(0)-0------|-0--0-(0)-0------|
A|-0--0-(0)-0------|-0--0-(0)-0------|-0--0-(0)-0------|-0--0-(0)-0------|
E|-0--0-(0)-0------|-0--0-(0)-0------|-0--0-(0)-0------|-0--0-(0)-0------|

  PM-------|               PM-------|
  E. S +E  E E S S S S E   E. S +E  E E S S S S E

e|------------------------|------------------------|
B|------------------------|------------------------|
G|------------------------|------------------------|
D|-0--0-(0)-0---x-x-x-x-x-|-0--0-(0)-0---x-x-x-x-x-|
A|-0--0-(0)-0---x-x-x-x-x-|-0--0-(0)-0---x-x-x-x-x-|
E|-0--0-(0)-0---x-x-x-x-x-|-0--0-(0)-0---x-x-x-x-x-|

                                   D.S.S. al Coda
                       PM----------|
  E. S +E  E E S S S S E   E S S E E  E  E  E  S S

e|------------------------|-----------15-15-15\------|
B|------------------------|-----------15-15-15\------|
G|------------------------|-----------15-15-15\------|
D|-0--0-(0)-0---x-x-x-x-0-|-0-0-0-0-0-12-12-12--0-0--|
A|-0--0-(0)-0---x-x-x-x-0-|-0-0-0-0-0--0--0--0--0-0--|
E|-0--0-(0)-0---x-x-x-x-0-|-0-0-0-0-0--0--0--0--0-0--|


[Outro]   
(Gtrs 1, 2, 3
   E S S E E +E  E E E   E S S S S E +E  S S E E
e|---------------------|-------------------------|
B|---------------------|-------------------------|
G|-7-7-7-7-------------|-7-7-7-7-7---------------|
D|-x-x-x-x-6-(6)-6-6-6-|-x-x-x-x-x-6-(6)-6-6-3-0-|
A|-5-5-5-5-6-(6)-6-6-6-|-5-5-5-5-5-6-(6)-6-6-3-0-|
E|---------6-(6)-6-6-6-|-0-0-0-0-0-6-(6)-6-6-3-0-|


   E S S E E +E  E E E   E S S S S E +S  S E E E
e|---------------------|-------------------------*|
B|---------------------|-------------------------*|
G|-7-7-7-7-------------|-7-7-7-7-7---------------*|
D|-x-x-x-x-6-(6)-6-6-6-|-x-x-x-x-x-6-(6)-6-6-3---*|
A|-5-5-5-5-6-(6)-6-6-6-|-5-5-5-5-5-6-(6)-6-6-3---*|
E|---------6-(6)-6-6-6-|-----------6-(6)-6-6-3---*|


************************************

| x    Dead note
| (n)  Ghost note
| \    Slide down
| PM   Palm mute
| /    Slide up
| *    Natural harmonic

************************************
Suggest correction
comments
print report bad tab
11 comments total. Showing first comments.
0 reply
wambulance 20 May 06, 2006 06:02 AM

you tab ledgend is huge

+2 reply
woodgerm 10 Oct 04, 2006 04:32 PM

ur tab is long but gd but theres alot of stuff i dont understand like 'segno'

0 reply
deaththrashcore 426 Apr 09, 2007 08:25 PM

This is AWESOME

guest
You may want to rate the tab now too:
select rating
Wanna post a correction for this tab? Suggest correction