Oops, an error
Loading. Please wait.

Pity Tab

version 2
version 2

Whole song

Interactive

491 views 3 this week
3 commentsread comments
1 2 3 4 5
please rate
add to favorites
launch autoscroll
font size
0
reset
how to read this tab
guitar tuner
Tab Pro tools
  • play this tab
  • loop segment
  • change instrument
  • show fretboard
  • metronome
×
Best way to learn
"Pity"
Autoscroll
slow
fast
+/-
esc
set tempo
stop
Contributor
Difficulty
Tuning
intermediate
C G C F A D
 song: Pity
 Band: Drowning Pool
 Album: Sinner (2001)
 Tuning: Drop C (high to low): D,A,F,C,G,C
 Tabbed By: C_majzer


Intro: (studio effect- gradually slow down speed)
D|------------------------------------|
A|------------------------------------|
F|------------------------------------|
C|------------------------------------|
G|------------------------------------|
C|--2-2-2--0-0-0-------3--3---0-0-0---|


D|--------------------------------------------------|
A|--------------------------------------------------|
F|*-------------------------------------------------|
C|*-2--2---2-----0--0---0-----3----3-----0--0---0---|  Gtr1
G|--2--2---2-----0--0---0-----3----3-----0--0---0---|
C|--2--2---2-----0--0---0-----3----3-----0--0---0---|
 |
D|--------------------------------------------------|
A|--------------------------------------------------|
F|-------------------------------------------------*|
C|-2--2---2-----0--0---0-----3----3-----/5--5---5--*|  Gtr1
G|-2--2---2-----0--0---0-----3----3-----/5--5---5---|
C|-2--2---2-----0--0---0-----3----3-----/5--5---5---|
 |
D|----------------------------------------------------|
A|----------------------------------------------------|
F|-4--4---4-----2--2---2-----5----5--5/7--7-7---------|
C|-x--x---x-----x--x---x-----x----x--x-x--x-x---------|
G|-2--2---2-----0--0---0-----3----3--3/5--5-5---------|  Gtr2
C|----------------------------------------------------|
 |
D|--------------------------------------------------|
A|--------------------------------------------------|
F|-4--4---4-----2--2---2-----5----5--5---2--2---2---|
C|-x--x---x-----x--x---x-----x----x--x---x--x---x---|
G|-2--2---2-----0--0---0-----3----3--3---0--0---0---|    Gtr2
C|--------------------------------------------------|

  Verse:                                    then:
D|-------------------------------------------|-<5>--------------------|
A|------------------------<5>----------------|------<5>------<7>------|
F|*-----------------------------<5>---------*|-----------<5>----------|
C|*-2-------2h3p2p0-------------------<5>---*|------------------------|
G|-------------------------------------------|------------------------|
C|-------------------------------------------|------------------------|

  Chorus:
D|-----------------------------------|
A|-----------------------------------|
F|*---------------------------------*|
C|*-2-2-2--0-0-0-------3--3---0-0-0-*|
G|--2-2-2--0-0-0-------3--3---0-0-0--|
C|--2-2-2--0-0-0-------3--3---0-0-0--|

  Bridge/outro: (w/ flange) (repeat) then repaet w/out flange
D|------------------------|
A|------------------------|
F|------------------------|
C|-7--7--7/5--5/8--8/(7)--|
G|-5--5--5/3--3/6--6/(5)--|
C|------------------------|

 Chorus:
D|-----------------------------------|
A|-----------------------------------|
F|*---------------------------------*|
C|*-2-2-2--0-0-0-------3--3---0-0-0-*|
G|--2-2-2--0-0-0-------3--3---0-0-0--|
C|--2-2-2--0-0-0-------3--3---0-0-0--|

then play verse agian, but w/ flange & wah

for outro (Ending) play Bridge riff w/ out flange effect

-peace! ;)
comments
We did not receive enough feedback on this tab! Please rate:
print report bad tab
1 2 3 4 5
3 comments total.
0 reply
C_majzer wrote on June 5 2007, 02:08 pm

srry this here

D|--------------------------------------------------|
A|--------------------------------------------------|
F|-------------------------------------------------*|
C|-2--2---2-----0--0---0-----3----3-----/5--5---5--*| Gtr1
G|-2--2---2-----0--0---0-----3----3-----/5--5---5---|
C|-2--2---2-----0--0---0-----3----3-----/5--5---5---|
|
D|----------------------------------------------------|
A|----------------------------------------------------|
F|-4--4---4-----2--2---2-----5----5--5/7--7-7---------|
C|-x--x---x-----x--x---x-----x----x--x-x--x-x---------|
G|-2--2---2-----0--0---0-----3----3--3/5--5-5---------| Gtr2
C|----------------------------------------------------|
|
D|--------------------------------------------------|
A|--------------------------------------------------|
F|-4--4---4-----2--2---2-----5----5--5---2--2---2---|
C|-x--x---x-----x--x---x-----x----x--x---x--x---x---|
G|-2--2---2-----0--0---0-----3----3--3---0--0---0---| Gtr2
C|--------------------------------------------------|

was suppost to be:


D|----------------------------------------------------|
A|----------------------------------------------------|
F|---------------------------------------------------*|
C|-2--2---2-----0--0---0-----3----3-----/(5)---------*| Gtr1
G|-2--2---2-----0--0---0-----3----3-----/(5)----------|
C|-2--2---2-----0--0---0-----3----3-----/(5)----------|
|
D|----------------------------------------------------
A|----------------------------------------------------
F|-4--4---4------------------5----5--5/(7)------------
C|-x--x---x-----x--x---x-----x----x--x----------------
G|-2--2---2-----0--0---0-----3----3--3/(5)------------ Gtr2
C|----------------------------------------------------

0 reply
C_majzer wrote on June 5 2007, 02:10 pm

the harmonics are suppost to be done by guitar 2.

0 reply
C_majzer wrote on August 1 2007, 09:30 pm

use chorus & delay on the harmonics (gtr2) & it sounds nice :{)

I want to post or [tab]
guest
You may want to rate the tab now too:
select rating
Please do not post tabs as comments. Select "correction" instead!