Oops, an error
Loading. Please wait.

Regret Tab

812 views 9 this week
no commentswrite comment
1 2 3 4 5
please rate
add to favorites
launch autoscroll
font size
0
reset
how to read this tab
guitar tuner
Tab Pro tools
  • play this tab
  • loop segment
  • change instrument
  • show fretboard
  • metronome
×
Best way to learn
"Regret"
Autoscroll
slow
fast
+/-
esc
set tempo
stop
Contributor
Difficulty
Tuning
advanced
D A D G B E
---------------------------------------------------------------------------
                            REGRET - Drowning Pool
---------------------------------------------------------------------------
Tabbed By: Tobse
Tunging: Drop D [ D A D G B E]

Please rate and comment!


>>> Intro <<<
Also mute these notes with your left hand.
E|------------------------------------------------------------------------|
B|-///////////------------------------------------------------------------|
G|-// Pick- //------------------------------------------------------------|
D|-// slide //--0-0--0-0--0-0--0-0--0-0--0-0-0--0-0--0-0--0-0--0-0--0-0-0-|
A|-///////////--0-0--0-0--0-0--0-0--0-0--0-0-0--0-0--0-0--0-0--0-0--0-0-0-|
D|--------------0-0--0-0--0-0--0-0--0-0--0-0-0--0-0--0-0--0-0--0-0--0-0-0-|
                . .  . .  . .  . .  . .  . . .  . .  . .  . .  . .  . . .

>>> Verse <<<<
E|-------------------------------------------------------------------|----|
B|o-----9-----9---------7-----7---7-----7-----7-------5-5-7-5-0-0-0-o|x4--|
G|--6-6-6-6-6-6-6-6-6-6-6-6-6-6-6-6-4-4-4-4-4-4-4-4-4-4-5-4-4-6-6-6--|----|
D|-------------------------------------------------------------------|----|
A|o-----------------------------------------------------------------o|x4--|
D|-------------------------------------------------------------------|----|


>>> Chorus <<<
One guitar plays the verse through the chorus.

E|------------------------------------------------------------------------|
B|o-----------------------------------------------------------------------|
G|--6-6-6-6-6-6-6--9-9-9-9-9-9-9-9-10-10-10-10-10-10-10-10-10-10-10-10-10-|
D|--6-6-6-6-6-6-6--9-9-9-9-9-9-9-9-10-10-10-10-10-10-10-10-10-10-10-10-10-|
A|o-4-4-4-4-4-4-4--7-7-7-7-7-7-7-7-8--8--8--8--8--8--8--8--8--8--8--8--8--|
D|------------------------------------------------------------------------|

 |Guitar 1
E|-----------|-|----------------------------------------------------------|
B|----------o|-|o--------------------------------------------------------o|
G|-10-10-10--|-|----------------------------------------------------------|
D|-10-10-10--|-|--11-11-x-x-x-x-x-x-14-14-x-x-x-16-16-16------------------|
A|-8--8--8--o|-|o-11-11-x-x-x-x-x-x-14-14-x-x-x-16-16-16-----------------o|
D|-----------|-|--11-11-x-x-x-x-x-x-14-14-x-x-x-16-16-16------------------|
 |
 |Guitar 2
E|-----------|-|-------13b14.5--14.5--14.5--14.5--14.5--------------------|
B|-----------|-|o--------------------------------------------------------o|
G|-----------|-|----------------------------------------------------------|
D|-----------|-|----------------------------------------------------------|
A|-----------|-|o--------------------------------------------------------o|
D|-----------|-|----------------------------------------------------------|

Repeat Verse and Chorus

>>> Solo <<<

E|------------------------------------------------------------------------|
B|-14h15p14-14-19p14-15-14--14h15p14-14-19p14-15-14--14h16p14-14-19p14-16-|
G|------------------------------------------------------------------------|
D|------------------------------------------------------------------------|
A|------------------------------------------------------------------------|
D|------------------------------------------------------------------------|

E|------------------------------------------------------------------------|
B|-14--14h16p14-14-19p14-16-14--17-15-14-17-15-14-------------------------|
G|------------------------------------------------17-15-14-17-15-14-------|
D|------------------------------------------------------------------16-14~|
A|------------------------------------------------------------------------|
D|------------------------------------------------------------------------|

E|-----------------------------12h14p12-17p12-12h14p12-17p12--------------|
B|-17-15-14---------------------------------------------------------------|
G|----------17-15-14-17---------------------------------------------------|
D|----------------------13\11---------------------------------------------|
A|------------------------------------------------------------------------|
D|------------------------------------------------------------------------|

E|------------------------------------------------------------------------|
B|-17-14-13-17-14--17-14-13-17-14-13-14-13----17-15-14--------------------|
G|-----------------------------------------14----------17-15-14-----------|
D|--------------------------------------------------------------13-11+-14+|
A|------------------------------------------------------------------------|
D|------------------------------------------------------------------------|

E|------------------------------------------------------------------------|
B|-------------------13-14-16-17b18~--------------------------------------|
G|----------13-14-16------------------------------------------------------|
D|-13-14-16---------------------------------------------------------------|
A|------------------------------------------------------------------------|
D|------------------------------------------------------------------------|


>>> Bridge <<<

E|-------------------------------------------------------|----------------|
B|o-----------------------------------------------------o|----------------|
G|-------------------------------------------------------|---7+---5+----3+|
D|--6-6--6-6-6--7-7--7-7-7--9-9--9-9-9--10-10--10-10-10--|-5+---3+---1+---|
A|o-6-6--6-6-6--7-7--7-7-7--9-9--9-9-9--10-10--10-10-10-o|----------------|
D|--6-6--6-6-6--7-7--7-7-7--9-9--9-9-9--10-10--10-10-10--|----------------|
    . .  . . .  . .  . . .  . .  . . .  .  .   .  .  .

E|-------------------------|                   |--------------------------|
B|-------------------------|                   |--------------------------|
G|----5+----7+----5+----3+-| repeat the chorus |--------------------------|
D|-3+----5+----3+----1+----|                   |--------------------------|
A|-------------------------|                   |--------------------------|
D|-------------------------|                   |--------------------------|


>>>Outro<<<

E|------------------------------------------------------------------------|
B|------------------------------------------------------------------------|
G|------------------------------------------------------------------------|
D|-12-12-x-x-x-x-12-12-x-x-12-12-15-15-11-11-x-x-x-x-11-11-x-x-11-11-x-x--|
A|-12-12-x-x-x-x-12-12-x-x-12-12-15-15-11-11-x-x-x-x-11-11-x-x-11-11-x-x--|
D|-12-12-x-x-x-x-12-12-x-x-12-12-15-15-11-11-x-x-x-x-11-11-x-x-11-11-x-x--|

E|------------------------------------------------------------------------|
B|------------------------------------------------------------------------|
G|------------------------------------------------------------------------|
D|-14-14-12-12-x-x-x-x-12-12-x-x-12-12-15-15-11-11--11-11-11\1------------|
A|-14-14-12-12-x-x-x-x-12-12-x-x-12-12-15-15-11-11--11-11-11\1------------|
D|-14-14-12-12-x-x-x-x-12-12-x-x-12-12-15-15-11-11--11-11-11\1------------|

****
b - bend
h - hammer on
p - pull off
\ - slide down
+ - let ring
. - palm mute
comments
We did not receive enough feedback on this tab! Please rate:
print report bad tab
1 2 3 4 5
I want to post or [tab]
guest
You may want to rate the tab now too:
select rating
Please do not post tabs as comments. Select "correction" instead!