Oops, an error
Loading. Please wait.

Sermon Tab

version 2
version 2

Whole song

Interactive

437 views 1 this week
5 commentsread comments
1 2 3 4 5
please rate
add to favorites
launch autoscroll
font size
0
reset
how to read this tab
guitar tuner
Autoscroll
slow
fast
+/-
esc
set tempo
stop
Help us to improve Ultimate-Guitar.com Take our survey!
×
Author
Difficulty
Tuning
intermediate
C G C F A D
Album: Sinner (2001)
Song:  Sermon
Band:  Drowning Pool
Tunning: Drop C (high to low)D,A,F,C,G,C
Tabed By: C_majzer (my username, which was suppost to be: Secular101)

for those who are confused on how many Guitars are in DP, there's only 1... he jus overdubs 
(records over) his guitar tracks.

intro:

D|------------------------------------------------------------------------|
A|------------------------------------------------------------------------|
F|------------------------------------------------------------------------|
C|------------------------------------------------------------------------|  Gtr 1
G|--6-X----5-X----6-X----5-X----6-5----6-X----5-X----6-X----5-X----6-5----|
C|--6-X----5-X----6-X----5-X----6-5----6-X----5-X----6-X----5-X----6-5----|     
 |    PM     PM     PM     PM            PM     PM     PM     PM   *        \
D|-----------------------|                                                   \
A|-----------------------|                                                    \
F|-----------------------|                                                    (x2)
C|-----------------------|  Gtr 2                                   ___________|
G|-6-6-555---6-6-555-----|
C|-----------------------|

D|--------------------------------------------------------------------------------------|
A|--------------------------------------------------------------------------------------|
F|--------------------------------------------------------------------------------------|
C|--------------------------------------------------------------------------------------| Gtr1 (repeat)
G|--6-0----5-0----6-0----5-0----6-5----6-0----5-0----6-0----5-0----6--5--5--6--5--3--0--|
C|--6-0----5-0----6-0----5-0----6-5----6-0----5-0----6-0----5-0----6--5--5--6--5--3--0--|
 |
D|----------------------------------------------------------------------------------------
A|----------------------------------------------------------------------------------------(repeat in unision)
F|--8--8--8--7--7--7--8--8--8--7--7--7-8/(7)---8--8--8--7--7--7--8--8--8--7--7--7--8/(10)-
C|--x--x--x--x--x--x--x--x--x--x--x--x---------x--x--x--x--x--x--x--x--x--x--x--x--x------ Gtr2 (repeat)
G|--6--6--6--5--5--5--6--6--6--5--5--5-6/(5)---6--6--6--5--5--5--6--6--6--5--5--5--6/(8)--
C|----------------------------------------------------------------------------------------  
 |
D|----------------|
A|----------------|
F|--7--8--7--5--3-|
C|--x--x--x--x--x-|
G|--5--6--5--3--1-|
C|----------------|
then BOTH guitars play harmonics only:
D|--------------------------------------------------------------------------------------------------|
A|--------------------------------------------------------------------------------------<5>---------|
F|---------------<7>---------<5>--<5>--------------------------<7>----------<5>--------------<5>----|
C|-<12>---<12>-------------------------<5>-------<12>---<12>-----------------------<5>--------------|
G|------------------------------------------<5>-----------------------------------------------------|
C|--------------------------------------------------------------------------------------------------|

 Verse:
D|---------------------|
A|---------------------|
F|---------------------|
C|---------------------| (repeat)
G|---------------------|
C|--5--5--6--5--3--5---|

then 

D|------------------------------------------------------------------------------|
A|------------------------------------------------------------------------------|
F|-/12-----12-----13p12p10-----12--13---13p12p(10)-10----10/(7)-7/(5)-5ph/(0)---|
C|------------------------------------------------------------------------------|
G|------------------------------------------------------------------------------|
C|------------------------------------------------------------------------------|

Pre-Chorus: 
D|-------------------------------------------------------------------------------|---------------------|
A|-------------------------------------------------------------------------------|----------<5>--------|
F|-------------------------------------------------------------------------------|-------<5>---<5>-----|
C|-----------------------------------------------------------5-5-5-5-------------|-<5><5>---------<5>--|
G|--------------5-5-5----------------------------5-5-5-6-6-6---------6-6-6-5-5-5-|---------------------|
C|--5-5-5-6-6-6------6-6-6-5-5-5-3-3-5-5-5-6-6-6---------------------------------|---------------------|
then play the riff prior to the 5th fret harmonics again


then play-
D|-------------------------|
A|-------------------------|
F|-------------------------|
C|-5--5---6----5--5---6----|
G|-5--5---6----5--5---6----|
C|-5--5---6----5--5---6----|

Chorus: (repeat)
-----------------------------------------------------------------------|
-----------------------------------------------------------------------|
-----------------------------------------------------------------------|
-0--0-1-0-0--1-0-1-0-0--5--5-5-5-5-5-----------------------------------|
-0--0-1-0-0--1-0-1-0-0--3--3-3-3-3-3-----------------------------------|
-0--0-1-0-0--1-0-1-0-0-------------------------------------------------|

Interlude: (Palm Mute all)the open notes could also be x's as well

D|-----------------------------------|
A|-----------------------------------|
F|-----------------------------------|
C|-----------------------------------|
G|-6-0---5-0---6-0-------------------| then play intro riff agian
C|-6-0---5-0---6-0---6-5-0-6-5-3-5-6-|

then play (w/ Wah)(tremelo pick):

D|--------------------------------------------|
A|--------------------------------------------|
F|--8---7---8---10----8---7---5---7---5---3---|
C|--x---x---x---x-----x---x---x---x---x---x---|
G|--6---5---6---8-----6---5---3---5---3---1---|
C|--------------------------------------------|
then play chorus agian,

then w/ a chorus? or reverb? effect (or add any effect to this you'd like):

D|------------------------------------------|
A|------------------------------------------|
F|-------------------------------0----------|
C|-------1--------------------1-----1--0----|
G|-----------3------------3-----------------| 
C|-0--0-------------0--0--------------------|
2nd or 3rd time, palm mute the low C (6th string) string lightly

last chorus:

D|------------------------------------------------------------------------------|
A|------------------------------------------------------------------------------|
F|----------5/-7/-8/-7/-5-----------7/-8--12-8/-7-----------5/-7/-8/-12--8/-7---|
C|--0---0---x--------x------0---0---x-----x--x------0---0---x--------x---x------|
G|--0---0---3/-5/-6/-5/-3---0---0---5/-6--10-6/-5---0---0---3/-5/-6/-10--6/-5---|
C|--0---0-------------------0---0-------------------0---0-----------------------|
 then:
D|-------------------------|
A|-------------------------|
F|-------------------------|
C|-----5-------------------|
G|-1---3----1---4---1--0---|(repeat)
C|-1--------1---4---1--0---|

END ON:

D|---------------------------|
A|---------------------------|
F|--------------------7------|
C|-----5--------------x------|
G|-1---3---1---4---1--5------|
C|-1-------1---4---1---------|
Suggest correction
Give kudos to tab author, rate the tab!
1 2 3 4 5
comments
print report bad tab
5 comments total. Showing first comments.
0 reply
C_majzer 82 wrote on June 6 2007, 11:31 am

srry, I 4got the LEGEND:
_____________________________
* the star is when this part (gtr 2) comes in:

|-----------------------| \
A|-----------------------| \
F|-----------------------| (x2)
C|-----------------------| Gtr 2 ___________|
G|-6-6-555---6-6-555-----|
C|-----------------------|

/ slide to & fro
PM palm mute
natural harmonics
() ghost/optional note

0 reply
C_majzer 82 wrote on June 6 2007, 11:32 am

was suppost to be Natural Harmonics

0 reply
C_majzer 82 wrote on June 6 2007, 11:33 am

< > was suppost to be Nat. Harm.s

guest
You may want to rate the tab now too:
select rating
Please do not post tabs as comments. Select "correction" instead!