Oops, an error
Loading. Please wait.

Sinner Bass Tab

version 2
version 2

Whole song

Interactive

801 views 1 this week
no commentswrite comment
1 2 3 4 5
please rate
add to favorites
launch autoscroll
font size
0
reset
guitar tuner
Autoscroll
slow
fast
+/-
esc
set tempo
stop
Help us to improve Ultimate-Guitar.com Take our survey!
×
Author
Difficulty
intermediate
Artist:Drowning Pool
Album:Sinner
Tuning:B.F#.B.E
Tab:Lopez017


ITuning: (B, F#, B, E)

Intro

----------------------------------------------------------------------------|
----------------------------------------------------------------------------|
----------------------------------------------------------------------------|
----0-0-0-0---1-1---3---3-0---0-0-0-0---1-1----4---4-3----------------------|

----------------------------------------------------------------------------|
----------------------------------------------------------------------------|
----------------------------------------------------------------------------|
-3-3-3-3----3-3----3---3-2----2-2-2-2----1-1--1----1-1-1-0------------------|


Repeat:
intro(1)

Then add this on the second time
----------------------------------------------------------------------------|
----------------------------------------------------------------------------|
----------------------------------------------------------------------------|
-2-2-2-2---1-1--1---1---1-0-------------------------------------------------|


Verses
-----------------------------------------------------------------------------|
-----------------------------------------------------------------------------|
-----------------------------------------------------------------------------|
---0--0------0------1-----2-----1-----0----0--0----0-------1------2----3---0-|

-------------------------------------------------------------------------------------|
-------------------------------------------------------------------------------------|
-------------------------------------------------------------------------------------|
---0--0----0----1----2--2----1------0-----0---0------0-------1--1----2--2--3-----0---|

-----------------------------------------------------------------------|
-----------------------------------------------------------------------|
-----------------------------------------------------------------------|
--0--0--0--0------1--1----1-----0-----0--0--0--0----1--1-----3------0--|

---------------------------------------------------------------------------------|
---------------------------------------------------------------------------------|
-----------------------------------------------------3--0------------------------|
--0--0--0--0------1--1----1-----0-----0--0--0--0-----------7--6-----5--3--5--3---|

Chorus

-------------------------------------------------------------------|
-------------------------------------------------------------------|
-------------0---5-----5--5--5----------------3--------------------|
------0-------------------------2-------3---------3----3--0--2--3--|

-----------------------------------------------------------------|
-----------------------------------------------5-----5--5--------|
----------0---------------5--0------3-------3--------------------|
----0---------0-----0--0-----------------------------------3--2--|

-------------------------------------------------------------------------------|
-------------------------------------------------------------------------------|
----------0--5----5--5--5-------------3--------------------0---5---5--5--5-----|
-----0---------------------2----3--------3-----3--0--2--3-----0------------0---|

             (3rd time) To Coda
|--------------------------------------------|
|--------------------------------------------|
|-5--3----3----3-----------------------------|
|--------------------3--3-----3--3--5--0-----|

-------------------------------------------------------------------------------|
-------------------------------------------------------------------------------|
-------------------------------------------------------------------------------|
----0--0--0--0----1--1-----3------3--0-----0--0--0--0----1--1------4----4--3---|

----------------------------------------------------------------------|
----------------------------------------------------------------------|
----------------------------------------------------------------------|
-----3--3--3--3----3--3----3---3---2--2--2--2---1--1---1----1---1--0--|

Go Back To the Verse
Then Finish off Chorus with this below

------------------------------------------|
------------------------------------------|
----5--3----3--3--------------------------|
---------------------3--3----3--3--5--0---|

Bridge

-----------------------------------------------------------------------------|
-----------------------------------------------------------------------------|
-----------------------------------------------------------------------------|
---0----0--3----3----3--3-----5----5----5----6--5--------6--5------12--------|

----------------------------------------------------------|
----------------------------------------------------------|
----------------------------------------------------------|(3)
---6--0--5--0----3--5--0--6----0--5--5--3----5--3--5--3---|

------------------------------------------------------------|
------------------------------------------------------------|
------------------------------------------------------------|
----6--0--5--0-----3--5--0--5-----0--5--5--3----5--3----0---|

Guitar Solo

-------------------------------------------|
-------------------------------------------|
-------------------------------------------|(3)
---6--5----0--6-------6---6-----0-----0----|

----------------------------------------------------------|
----------------------------------------------------------|
----------------------------------------------------------|
-------6--5----0--6-------6---6----0----------0------0--0-|

Coda

------------------------------------|
--------------------5---5--5--------|
-----3------3----3------------------|
------------------------------3--2--|


Outro Chorus
----------------------------------------------------------|
----------------------------------------------------------|
---------0--5----5--5--5----------------------------------|
----0---------------------2----3----0--3----3--0--3--5----|

----------------------------------------------------|
----------------------2------------5-----5----------|
------0--5---5--5--5-------3----3-------------------|
--0-----------------------------------------3--3--2-|

----------------------------------------------------------|
----------------------------------------------------------|
---------0--5----5--5--5----------------------------------|
----0---------------------2----3----0--3----3--0--3--5----|

-------------------------------------------------------------------|
----------------------2--------------------------------------------|
------0--5---5--5--5--------3-3--3---3-----3--3-----3--3--3--5--5--|
--0----------------------------------------------------------------|
Suggest correction
Give kudos to tab author, rate the tab!
1 2 3 4 5
comments
print report bad tab
guest
You may want to rate the tab now too:
select rating
Wanna post a correction for this tab? Suggest correction