Oops, an error
Loading. Please wait.

Sinner Tab

version 2
version 2

Album

Whole song

Interactive

5,004 views 3 this week
1 commentread comment
1 2 3 4 5
accurate
x 4
add to favorites
launch autoscroll
font size
0
reset
how to read this tab
guitar tuner
Tab Pro tools
  • play this tab
  • loop segment
  • change instrument
  • show fretboard
  • metronome
Autoscroll
slow
fast
+/-
esc
set tempo
stop
Contributor
 Note:Listen to the song to get the rythem,you may play the notes more times than noted.
Overall this sounds correct.   ^ =Palm Mute

Intro(distortion)
        /--------------2X-----------\---------------------|
E---------------------------------------------------------|
B---------------------------------------------------------|
G---------------------------------------------------------|
D-X--0---3/4--4/5--5--5--5--5------5---5------------------|
A-X--0---1/2--2/3--3--3--3--3------3---3-------0-0---2-2--|
D-X--0-----------------------------------------0-0---2-2--|

2nd Part of Intro w/ Wah Wah

E------------------|
B------------------|
G------------------|
D---3---5-5-5-5-5--|
A---1---3-3-3-3-3--|
D------------------|

Verse   Distortion

E-----------|
B-----------|
G--^--^-----|
D--0-0---1--|
A--0-0---1--|
D--0-0---1--|

Pre Chorus  (not sure about)

E-------------------|
B-------------------|
G-------------------|
D-------------------|
A-------------------|
D-0--1/2-3/4-5/6-6--|

Chorus

E----------------------------|
B----------------------------|
G----------------------------|
D---0--4-4-4-4-4--2---1---1--|
A---0--2-2-2-2-2--2---1---1--|
D---0-------------2---1---1--|

Bridge:W/ Wah slowly move the wah pedal foreward|

E-----------------------------------------------------------------------------|
B-----------------------------------------------------------------------------|
G-----------------------------------------------------------------------------|
D----------------------------------------------------------------------5---3--|
A----------------------------------------------------------------------3---1--|
D--1-1-1/2-1-1-1/2-1----------------------------------------------------------|
Please rate
comments
print report bad tab
1 comment total.
0 reply
ObtainedPenguin wrote on January 25 2010, 08:49 pm

not right...

I want to post or [tab]
guest
You may want to rate the tab now too:
select rating
Please do not post tabs as comments. Select "correction" instead!