Oops, an error
Loading. Please wait.

Buried Hearts Tab

33 views 1 this week
no commentswrite comment
1 2 3 4 5
3 more votes to show rating
add to favorites
launch autoscroll
font size
0
reset
how to read this tab
guitar tuner
Autoscroll
slow
fast
+/-
esc
set tempo
stop
Help us to improve Ultimate-Guitar.com Take our survey!
×
Author
Difficulty
novice
----------------------------------------------------------------------------
                             Buried Hearts - Drowning Shakespeare
----------------------------------------------------------------------------
Tabbed by: Christopher Poirrier
Email: christopherpoirrier@hotmail.com

Tuning: c#g#c#f#a#d#, drop d half step down

Intro (guitar 1):
e|-------------------------------------------------------------------------|
B|-------------------------------------------------------------------------|
G|-----17-----------------------17-----------------------------------------|
D|---15--14-every 4th time:---15--14h15p14---------------------------------|
A|-17-----------------------17---------------------------------------------|
E|-------------------------------------------------------------------------|

Intro (guitar 2):
e|-0-----------------------------------------------------------------------|
B|-3-----------------------------------------------------------------------|
G|-2-----------------------------------------------------------------------|
D|-0---3-------------------------------------------------------------------|
A|-0---3-------------------------------------------------------------------|
E|-0---3-------------------------------------------------------------------|

Verse (guitar 1):
e|-------------------------------------------------------------------------|
B|-------------------------------------------------------------------------|
G|-----------10------------------------------------------------------------|
D|-14---12---10------------------------------------------------------------|
A|--x----x----8------------------------------------------------------------|
E|-12---10----8------------------------------------------------------------|

Verse (guitar 2)
e|-0-----------------------------------------------------------------------|
B|-3-----------------------------------------------------------------------|
G|-2-------10--------------------------------------------------------------|
D|-0---3---10--------------------------------------------------------------|
A|-0---3----8--------------------------------------------------------------|
E|-0---3----8--------------------------------------------------------------|

Chorus (guitar 1)(guitar 2 is the same as the verse)
e|--------------------------------------------0----------------------------|
B|--------------------------------------------0----------------------------|
G|-17---14---10----9---10----9------END ON----7----------------------------|
D|-19---15---12---10---12---10----------------0----------------------------|
A|--0-----------------------------------------0----------------------------|
E|--0-----------------------------------------0----------------------------|

Bridge (guitars 1 & 2 go back and forth, starting with guitar 2)
e|---------------------------------------------------------------------------|
B|---------------------------------------------------------------------------|
G|10---7--10---12------------------------------------------------------------|
D|10---7--10---12------At the end, repeat the last 2 chords------------------|
A|-8---5---8---10------------------------------------------------------------|
E|-x---x---8---10------------------------------------------------------------|
  (g2)(g2) (both)

The rest of the song is just the chorus followed by the end part, which is just the 
(guitar 1) and the lower octave:

End (guitar 2)
e|-------------------------------------------------------------------------|
B|-------------------------------------------------------------------------|
G|-----5-------------------------------------------------------------------|
D|---3---2-----------------------------------------------------------------|
A|-5-----------------------------------------------------------------------|
E|-------------------------------------------------------------------------|


In the intro, verse and chorus, guitar 2 (Evan) plays minor notes that I do not know.  Listen carefully.

| /  slide up
| \  slide down
| h  hammer-on
| p  pull-off
| ~  vibrato
| +  harmonic
| x  Mute note
============================================================================
Suggest correction
Give kudos to tab author, rate the tab!
1 2 3 4 5
comments
print report bad tab
guest
You may want to rate the tab now too:
select rating
Wanna post a correction for this tab? Suggest correction