Oops, an error
Loading. Please wait.

Cheap Motels Dont Bother Me In The Least Tab

83 views 3 this week
no commentswrite comment
1 2 3 4 5
please rate
add to favorites
launch autoscroll
font size
0
reset
how to read this tab
guitar tuner
Autoscroll
slow
fast
+/-
esc
set tempo
stop
Help us to improve Ultimate-Guitar.com Take our survey!
×
Author
Difficulty
novice
---------------------------------------------------------------------------
       Cheap Motels Don't Bother Me In The Least - Drowning Shakespeare
---------------------------------------------------------------------------

Tabbed by: Christopher Poirrier
Email: christopherpoirrier@gmail.com

Tuning: c#g#c#f#a#d#, drop d flat

Intro - part 1
e|-------------------------------------------------------------------------|
B|-------------------------------------------------------------------------|
G|-------------------------------------------------------------------------|
D|-55-7-777-777-777-777-777-77-7-7-7--777-777-777-777-777-77-7-7--9--------|
A|-55-7-777-777-777-777-777-77-7-7-7--777-777-777-777-777-77-7-7-10--------|
E|-55-7-777-777-777-777-777-77-7-7-7--777-777-777-777-777-77-7-7-10--------|

Intro - part 2 (this is the same as part 1, except where the last chord is, play this instead)
e|-------------------------------------------------------------------------|
B|-------------------------------------------------------------------------|
G|----------------------------4--------------------------------------------|
D|----------9----------9----5--5--5----------------------------------------|
A|------10---10----10---10-------------------------------------------------|
E|-1010---10---1010--10---22-2--22-2---------------------------------------|

Intro - part 3 (this is the same as part 1, except play the picky part at the end,just like in part 2)

Intro - part 4
e|-------------------------------------------------------------------------|
B|-------------------------------------------------------------------------|
G|---555555555-4------------------------------555--------------------------|
D|-33555555555-5-repeat part twice, then:-333-555--repeat 4 times----------|
A|-33333333333-2--------------------------333------------------------------|
E|-33333333333-2--------------------------333------------------------------|

Pre-Chorus Thing (listen for strumming)
e|-------------------------------------------------------------------------|
B|-------------------------------------------------------------------------|
G|-----5-4-7---7-7-7-------------------------------------------------------|
D|-5/7-7-5-5---5-7-5-------------------------------------------------------|
A|-------------7-5-3-------------------------------------------------------|
E|-------------------------------------------------------------------------|

Chorus (listen for strumming)
e|-------------------------------------------------------------------------|
B|-------------------------------------------------------------------------|
G|---5-4-5-4------------------------------------------------555------------|
D|-7-2-2-3-3-5-repeat three times, the last time is:-7-2----555------------|
A|-7-2-2-3-3-5---------------------------------------7-2-333---------------|
E|-7-2-2-3-3-5---------------------------------------7-2-333---------------|

Drum & Bass part (listen to figure it out)

Chorus (tabbed above)

End
e|-------------------------------------------------------------------------|
B|-------------------------------------------------------------------------|
G|-7-7---------------------------------------------------------------------|
D|-5-7---------------------------------------------------------------------|
A|-7-5---------------------------------------------------------------------|
E|-------------------------------------------------------------------------|



| /  slide up
| \  slide down
| h  hammer-on
| p  pull-off
| ~  vibrato
| +  harmonic
| x  Mute note
============================================================================
Suggest correction
Give kudos to tab author, rate the tab!
1 2 3 4 5
comments
print report bad tab
guest
You may want to rate the tab now too:
select rating
Wanna post a correction for this tab? Suggest correction