Oops, an error
Loading. Please wait.

Were You Saying Something Chords

73 views 1 this week
1 commentread comment
1 2 3 4 5
1 last vote to show rating
add to favorites
launch autoscroll
font size
0
reset
transpose
0
reset
display chords
guitar tuner
Autoscroll
slow
fast
+/-
esc
set tempo
stop
Help us to improve Ultimate-Guitar.com Take our survey!
×
[Verse]
   G               Em              A              Am
E|---------3---------------0---------------0---------------0-------|
B|---3-------3---3---0-------0---0---2-------2---2---1-------2---2-|
G|-----0-------0-------0-------0-------2-------2-------2-------2---|
D|---------------------------------------2---------------2---------|   
A|-------2---------------2---------0---------------0---------------|
E|-3---------------0-----------------------------------------------|


   G               Em              A               Am
E|---------3---------------0---------------0---------------0-------|
B|---3-------3---3---0-------0---0---2-------2---2---1-------2---2-|
G|-----0-------0-------0-------0-------2-------2-------2-------2---|
D|---------------------------------------2---------------2---------|
A|-------2---------------2---------0---------------0---------------|
E|-3---------------0-----------------------------------------------|


   G               Em              A               Am
E|---------3---------------0---------------0---------------0-------|
B|---3-------3---3---0-------0---0---2-------2---2---1-------2---2-|
G|-----0-------0-------0-------0-------2-------2-------2-------2---|
D|---------------------------------------2---------------2---------|
A|-------2---------------2---------0---------------0---------------|
E|-3---------------0-----------------------------------------------|


   G               Em              A               Am
E|---------3---------------0---------------0---------------0-------|
B|---3-------3---3---0-------0---0---2-------2---2---1-------2---2-|
G|-----0-------0-------0-------0-------2-------2-------2-------2---|
D|---------------------------------------2---------------2---------|
A|-------2---------------2---------0---------------0---------------|
E|-3---------------0-----------------------------------------------|


[Verse]
G                        Em             A              Am
Were you saying something? or is it just la la la la la
G              Em       A                  Am
Oh you're so funny girl, Ah ha ha ha ha 
G         Em       A               Am
You say it's love, just the way I talk
G       Em             A                  Am
And I'm in the clouds, cause you're in my thoughts

[Chorus]
Bm 
      Am                   
Oh I know, I know, I know
        Bm
How it feels
Am
Can't this trip be real?
  Bm                  Am
Mmmmmm you've got to show
         Bm                   Am                     D
How you feel

[Verse]
G                        Em            A                  Am
Were you painting something? or is it just da da da da da
G             Em         A                  Am
Are you like money girl, mu la la la la la
G    Em         A                 Am
You say it's love, just the way I talk
G       Em          A                     Am
And I'm in the clouds, cause you're in my thoughts

[Chorus]
Bm 
      Am                   
Oh I know, I know, I know
        Bm
How it feels
Am
Can't this trip be real?
  Bm                  Am
Mmmmmm you've got to show
         Bm                 Am                  D                   G
How you feel
Suggest correction
Give kudos to tab author, rate the tab!
1 2 3 4 5
comments
print report bad tab
1 comment total.
0 reply
coolguyverycool 10 Nov 15, 2016 06:04 AM

do easy to forget or the real world!

guest
You may want to rate the tab now too:
select rating
Wanna post a correction for this tab? Suggest correction