Oops, an error
Loading. Please wait.

Hand On Deck chords

by Drunk
40 views 3 this week
no commentswrite comment
1 2 3 4 5
3 more votes to show rating
add to favorites
×
Save as Personal and add changes to this tab that will be seen only by you. Learn more ›
×
You can save this tab as Personal to edit and correct it or add notes. All changes will be seen only by you. Learn more »
launch autoscroll
font size
0
reset
transpose
0
reset
display chords
guitar tuner
edit
Autoscroll
slow
fast
+/-
esc
set tempo
stop
Author
Strumming
There is no strumming pattern for this song yet. and get +5 IQ
e|--2---2-------2-------2--------2-------2-------2-------2-------2-----------|
B|--3-3---3-2-3---3---3---3-2-3----3---3---3-2-3---3---3---3-2-3---3---------|
G|--2---------------2----------------2---------------2-----------------------|
D|---------------------------------------------------------------------------|
A|---------------------------------------------------------------------------|
E|---------------------------------------------------------------------------|

e|------2-------2-------2--------2-------2-------2---------------------------|
B|----3---3-2-3---3---3---3-2-3----3---3---3-2-3---3-------------------------|
G|--2---------------2----------------2---------------------------------------|
D|---------------------------------------------------------------------------|
A|---------------------------------------------------------------------------|
E|---------------------------------------------------------------------------|

F#m             A
Leave the light on tonight
F#m            D
Petals for the dark arrive
A       E       D                F#m 
Keep my sleeves rolled tonight I must

F#m              A
Pigeon sin there on their bough
F#m                D
Pray for all their shit somehow
A       E    D            F#m
Wipe my nose gently on my cuff

            Db               F#m          D
I sit there in the storeroom making it my home
  A        E
I drag the broom
D                  F#m
Fill my lungs with dust
                 Db               F#m          D
Well I sat there in the storeroom making it my home
    A        E
And drag the broom
D                  F#m
Fill my lungs with dust

e|--2---2-------2-------2--------2-------2-------2-------2-------2-----------|
B|--3-3---3-2-3---3---3---3-2-3----3---3---3-2-3---3---3---3-2-3---3---------|
G|--2---------------2----------------2---------------2-----------------------|
D|---------------------------------------------------------------------------|
A|---------------------------------------------------------------------------|
E|---------------------------------------------------------------------------|

Fill my lungs with guts Whistle whistle drag Whistle whistle drag

e|------2-------2-------2--------2-------------------------------------------|
B|----3---3-2-3---3---3---3-2-3----3-----------------------------------------|
G|--2---------------2--------------------------------------------------------|
D|---------------------------------------------------------------------------|
A|---------------------------------------------------------------------------|
E|---------------------------------------------------------------------------|

Whistle whistle drag Whistle whistle

F#m A F#m D A E D F#m 2x


e|--2---2-------2-------2--------2-------2-------2-------2-------2-----------|
B|--3-3---3-2-3---3---3---3-2-3----3---3---3-2-3---3---3---3-2-3---3---------|
G|--2---------------2----------------2---------------2-----------------------|
D|---------------------------------------------------------------------------|
A|---------------------------------------------------------------------------|
E|---------------------------------------------------------------------------|

F#m             A
Leave the light on tonight
F#m            D
Petals for the dark arrive
A       E       D                F#m 
Keep my sleeves rolled tonight I must

            
            
Suggest correction
Creating personal tab
Creating personal tab
You can edit any tab online and save it as your Personal.

You can edit, replace or remove any tab part or add personal notes – all changes will be seen only by you.

Personal tabs can be accessed anytime from any device, even offline.
Learn more »
Give kudos to tab author, rate the tab!
1 2 3 4 5
comments
print report bad tab
guest
You may want to rate the tab now too:
select rating
Wanna post a correction for this tab? Suggest correction