Oops, an error
Loading. Please wait.

Body Crumbles Tab

version 2
version 2

Whole song

Interactive

939 views 1 this week
6 commentsread comments
1 2 3 4 5
accurate
x 3
add to favorites
launch autoscroll
font size
0
reset
how to read this tab
guitar tuner
Autoscroll
slow
fast
+/-
esc
set tempo
stop
Help us to improve Ultimate-Guitar.com Take our survey!
×
Author
Dry Cell - Body Crumbles

Tabbed By - Brian Foster - BrianFoster326@hotmail.com

This is my first tab and I think that it sounds pretty close to their's.
Just listen to the song a couple of times to pick up the beat. It might
not be perfect because I tabbed it by ear. Just give it about 10 minutes
though and you should get it easily. I think it is about 96% to Dry Cell's.
(Rock Rules !!!)

Intro:     
e|---------------------------------------------|
B|---------------------------------------------|
G|---------------------------------------------|
D|---------------------------------------------|
A|4-------4------6--7--6-7h6p---0--7-------7-6-|
E|----4-------4---------------2------4-4-4-----|


e|------------------------------------------------|  \    /   |    |
B|------------------------------------------------|   \  /    |    |
G|------------------------------------------------|    \/     -------
D|------------------------------------------------|    /\          |
A|4-------4------6--7--6-7h6p---7/9-9\6-6-6-6-7p6-|   /  \         | 
E|----4-------4---------------2-------------------|  /    \        |
Suggest correction
What's this?
You can suggest a correction to this tab. Community and Mods will review your correction and vote to approve or reject it.
comments
We did not receive enough feedback on this tab! Please rate:
print report bad tab
1 2 3 4 5
6 comments total. Showing first comments.
0 reply
i_like_punk 79 wrote on March 28 2002, 12:00 am

someone should get this for all of the bass player out there!

0 reply
flawbss4 0 wrote on April 14 2002, 12:00 am

dry cell is a great band, can anyone put up tabs for slip away or sorry, thanx

0 reply
Headless_Duck77 300 wrote on July 12 2002, 12:00 am

ummm this is wrong if u listen to the song its actually played:
1st part:
A:--4--4-4h6-6h7-6-----7---7-6--
E:---4-------------7-5---6-----7

2nd part:
A:--4--4-4h6-6h7-6--7-7h9-6-7-7p6-
E:---4------------7--------------7
thats the real way to play it

guest
You may want to rate the tab now too:
select rating
Please do not post tabs as comments. Select "correction" instead!