Oops, an error
Loading. Please wait.

Body Crumbles Tab

version 2
version 2

Whole song

Interactive

2,308 views 3 this week
2 commentsread comments
1 2 3 4 5
please rate
add to favorites
launch autoscroll
font size
0
reset
how to read this tab
guitar tuner
Tab Pro tools
  • play this tab
  • loop segment
  • change instrument
  • show fretboard
  • metronome
×
Best way to learn
"Body Crumbles"
Autoscroll
slow
fast
+/-
esc
set tempo
stop
okay im just sick of all of this wrong shit that people are posting your ruining the 
and it is an insult to a great band so this comes from www.impurvisions.com (dry cells 
and is 100% correct i am taking no credit for this tabs all work was done by john bowdish of impurvisions.

Body Crumbles


Drop Db=drop C#

h=hameron
L=lift off
/=slide
(3)=harmonic
*=mute string


guitar1
Eb|--------------------------------------------------------||
Bb|--------------------------------------------------------||
Gb|--------------------------------------------------------||
Db|0-------------------------------------------------------||
Ab|--0-5-5/7-8-7h8L7-3---8---8-7-3-------------------------||
Db|--------------------8---7-------------------------------||

notice variation at 34 seconds-ends on the 8 on Ab or 5th string
Eb|--------------------------------------------------------||
Bb|--------------------------------------------------------||
Gb|--------------------------------------------------------||
Db|0-------------------------------------------------------||
Ab|--0-5-5/7-8-7h8L7-3-8-10-7-8-7h8L7-3--------------------||
Db|--------------------------------------------------------||

guitar3-first strum starts at 9 seconds
Eb|-------------------------------------||
Bb|-------------------------------------||
Gb|-------------------------------------||
Db|0-0----------------------------------||
Ab|0-0----------------------------------||
Db|0-0----------------------------------||

guitar2-soft part in background at 9 seconds
Eb|0h1L0------------0h1L0----------------------------------||
Bb|---------1----1-----------1---1-------------------------||
Gb|-------2----------------2-----2-------------------------||
Db|------------------------------0-------------------------||
Ab|--------------------------------------------------------||
Db|--------------------------------------------------------||

heres the variation at :34, then it kicks into the heavy part
Eb|--------------------------------------------------------||
Bb|--------------------------------------------------------||
Gb|--------------------------------------------------------||
Db|0-------------------------------------------------------||
Ab|--0-5-5/7-8-7h8L7-3-8-----------------------------------||
Db|--------------------------------------------------------||

guitar1
Eb|--------------------------------------------------------||
Bb|--------------------------------------------------------||
Gb|----3-3-3-3-3-------------------------------------------||
Db|0-0-3-3-3-3-3-3-3-1-1-1-1-1-----------------------------||
Ab|0-0-1-1-1-1-1-3-3-1-1-1-1-1-----------------------------||
Db|0-0-----------3-3-1-1-1-1-1-----------------------------||


Eb|--------------------------------------------------------||
Bb|--------------------------------------------------------||
Gb|----3-3-3-3-3-----5-5-5-5-5-----------------------------||
Db|0-0-3-3-3-3-3-3-3-5-5-5-5-5-----------------------------||
Ab|0-0-1-1-1-1-1-3-3-3-3-3-3-3-----------------------------||
Db|0-0-----------3-3---------------------------------------||

guitar2-this harmonic is played with guitar 1's chord right above
Eb|--------------------------------------------------------||
Bb|--------------------------------------------------------||
Gb|--------------------------------------------------------||
Db|--------------------------------------------------------||
Ab|------------------(3)-(3)-(3)-(3)-(3)-(3)-(3)-(3)-------||
Db|--------------------------------------------------------||

guitar1-at 1:31 this is played
Eb|----------------------------------------------------------------||
Bb|-----------------------------------------once-------------------||
Gb|---------------------14-14-14-14/15/14-14-----------------------||
Db|-------------twice---12-12-12-12/13/12-12-----------------twice-||
Ab|7h8L7-5-7-8-5---------------------------------7h8L7-5-7-8-5-----||
Db|----------------------------------------------------------------||

guitar2-at 1:48 the open string volume swells in and this
heavy part is added-listen for strumming pattern
Eb|--------------------------------------------------------||
Bb|-------------times2-------------------------------------||
Gb|----3---------------------------------------------------||
Db|0---3---3---0-------------------------------------------||
Ab|0---1---3---0-------------------------------------------||
Db|0-------3---0-------------------------------------------||

it plays the orginal heavy part with the harmonics, then at
2:26 it adds this, listen very closely to hear strumming pattern
Eb|--------------------------------------------------------||
Bb|10-6-13-11---10-6-13-15---------------------------------||
Gb|-*-*--*--*----*-*--*--*---------------------------------||
Db|-7-3-10--8----7-3-10-12---------------------------------||
Ab|--------------------------------------------------------||
Db|--------------------------------------------------------||

octaves continued, where it ends on 2:42
Eb|--------------------------------------------------------||
Bb|10-6-13-11---10-6-13------------------------------------||
Gb|-*-*--*--*----*-*--*------------------------------------||
Db|-7-3-10--8----7-3-10------------------------------------||
Ab|--------------------------------------------------------||
Db|--------------------------------------------------------||

thats all, put it together from there

Tabbed by John Bowdish of ImpurVisionsDotCom
comments
We did not receive enough feedback on this tab! Please rate:
print report bad tab
1 2 3 4 5
2 comments total.
0 reply
Kreuger wrote on February 6 2007, 08:05 pm

the first riff is bass. you havent done much better

0 reply
kevkev2257 wrote on November 24 2009, 04:13 pm

im sick of wrong tabs too this helped alot thanks

well this part for the harmonics should be..

Eb|-------------------------------|
Bb|-------------------------------|
Gb|-------------------------------|
Db|--------------(7)-(5)----------|
Ab|-----(7)-----------------------|
Db|--(5)--------------------------|

I want to post or [tab]
guest
You may want to rate the tab now too:
select rating
Please do not post tabs as comments. Select "correction" instead!