Oops, an error
Loading. Please wait.

Body Crumbles Bass Tab

version 5
version 5

Interactive

260 views 1 this week
no commentswrite comment
1 2 3 4 5
3 more votes to show rating
add to favorites
launch autoscroll
font size
0
reset
guitar tuner
Autoscroll
slow
fast
+/-
esc
set tempo
stop
Help us to improve Ultimate-Guitar.com Take our survey!
×
Author
Difficulty
Tuning
intermediate
D A D G B E
-------------------------------------------------------------------------------
			     BODY CRUMBLES - Dry Cell
-------------------------------------------------------------------------------
Album:Queen Of The Damned Soundtrack
Tabbed By : AsperityX
e-mail: asperityx@yahoo.com

Tuning: DROP D (D, A, D, G)

| /  slide up
| \  slide down
| h  hammer-on
| p  pull-off
| ~  vibrato
| +  harmonic
| x  Mute note


ORDER OF SONG

Intro/Verse x4
Chorus x4
Verse x2
Chorus x4
Bridge x4
Chorus x8
verse x2 (3 if you count the afterfade)
  INTRO/VERSE
G|----6-6/8-9-8h9p-------9---9-8-------|---6-6/8-9-8h9p---9/11-8-9-8h9p-----|
D|-----6------------9-7----6-----9-----|----6-----------9---------------9---|
A|-------------------------------------|------------------------------------|
D|-------------------------------------|------------------------------------|
****ON THE FOURTH TIME IT RINGS ON THE 9 BEFORE THE 11 SLIDE WOULD HAPPEN****

CHORUS (the beats are hard to find exactly because it sounds like there are some grace 
thrown in, it follows guitar beat)
G|--------------------------------------------------------------------------|
D|--------------------------------------------------------------------------|
A|--------------------------------------------------------------------------|
D|--0--0--0-0--7-7-7--2-2--4-4----------------------------------------------|

BRIDGE (guitar solo and singing where starts out "is it okay to be myself")(steady 
picking, its usually 16 hits each note but it sounds like it changes form time to time, you 
homework =P)
G|--------------------------------------------------------------------------|
D|--------------------------------------------------------------------------|
A|--------------------------------------------------------------------------|
D|-----------7--------------------2------------------------0----------------|

===NOTES===
-I couldn't get all the hits for the bridge (as stated before), but it seems the open is 
played the longest, with the 2 being second longest, and the 7 (obviously) being last. 
are long hits and id place the 0 at around 36, the 2 at 24, and the 7 maybe 20? play around with it.
-the beat of the chorus follows guitars (again stated)
-play around with this song! its mostly bass, and im sure you can add some cool notes 
the chorus and bridge to make it sound more bass-like and make some cool mods. this is a 
song for working with the left hand, it moves around the strings and wors on hammers and pull-offs. have fun!
-any problems email me at the adress listed above.
Suggest correction
Give kudos to tab author, rate the tab!
1 2 3 4 5
comments
print report bad tab
guest
You may want to rate the tab now too:
select rating
Wanna post a correction for this tab? Suggest correction