Oops, an error
Loading. Please wait.

Body Crumbles Bass Tab

version 6
version 6

Interactive

3,372 views 3 this week
1 commentread comment
1 2 3 4 5
excellent!
x 5
add to favorites
launch autoscroll
font size
0
reset
guitar tuner
Autoscroll
slow
fast
+/-
esc
set tempo
stop
Help us to improve Ultimate-Guitar.com Take our survey!
×
Author
Dry Cell
Body Crumbles 
DADG

Intro/Verse:
*Note: the (1/4^) after the 9 is a quarter bend up*
 
|-6---6-6h8--8-8h9p8------9---9-8--|-6---6-6h8-8-8h9p8--/9(1/4^)--/11-8--9-8h9p8---|
|---6----------------9-7---6-----9-|---6-----------------------------------------9-|
|----------------------------------|-----------------------------------------------|
|----------------------------------|-----------------------------------------------|X3

|-6---6-6h8--8-8h9p8------9---9-8--|-6---6-6h8-8-8h9p8--/9(1/4^)~~--|
|---6----------------9-7---6-----9-|---6----------------------------|
|----------------------------------|--------------------------------|
|----------------------------------|--------------------------------|X1

Chorus:
|-----------------|------------------|
|-----------------|------------------|
|-------1-1-------|-------1-1-3-3-3--|
|-0-0-0-----3-3-3-|-0-0-0------------|X3

|-----------------|------------------|
|-----------------|------------------|
|-------1-1-------|------------------|
|-0-0-0-----3-3-3-|-r----------------|X1

Verse 2:
|-6---6-6h8--8-8h9p8------9---9-8--|-6---6-6h8-8-8h9p8--/9(1/4^)~~--|
|---6----------------9-7---6-----9-|---6----------------------------|
|----------------------------------|--------------------------------|
|----------------------------------|--------------------------------|X2

Chorus 2: Same as Chorus 1 

Bridge: 
|-----------------|-----------------|
|-----------------|-----------------|
|-1-1-1-1-1-1-1-1-|-----------------|
|-----------------|-0-0-0-0-0-0-0-0-|X3

|-----------------|-----------------|
|-----------------|-----------------|
|-1-1-1-1-1-1-1-1-|-1-r-------------|
|-----------------|-----------------|X1

|-----------------|-----------------|
|-----------------|-----------------|
|-1-1-1-1-1-1-1-1-|-1-1-1-1-1-1-1-1-|
|-----------------|-----------------|X3

|-----------------|-----------------|
|-----------------|-----------------|
|-1-1-1-1-1-1-1-1-|-1-r-------------|
|-----------------|-----------------|X1

Chorus 3:
|-----------------|------------------|
|-----------------|------------------|
|-------1-1-------|-------1-1-3-3-3--|
|-0-0-0-----3-3-3-|-0-0-0------------|X7

|-----------------|------------------|
|-----------------|------------------|
|-------1-1-------|------------------|
|-0-0-0-----3-3-3-|-r----------------|X1

Outro:
|-6---6-6h8--8-8h9p8------9---9-8--|-6---6-6h8-8-8h9p8--/9(1/4^)--/11-8--9-8h9p8---|
|---6----------------9-7---6-----9-|---6-----------------------------------------9-|
|----------------------------------|-----------------------------------------------|
|----------------------------------|-----------------------------------------------|X2
Suggest correction
What's this?
You can suggest a correction to this tab. Community and Mods will review your correction and vote to approve or reject it.
comments
print report bad tab
1 comment total.
0 reply
thephoenixseal@ 608 wrote on August 1 2009, 04:53 pm

Awesome...thank you for making this tab

guest
You may want to rate the tab now too:
select rating
Please do not post tabs as comments. Select "correction" instead!