Oops, an error
Loading. Please wait.

Grape Jelly Tab

version 2
version 2

Whole song

290 views 1 this week
no commentswrite comment
1 2 3 4 5
please rate
add to favorites
launch autoscroll
font size
0
reset
how to read this tab
guitar tuner
Autoscroll
slow
fast
+/-
esc
set tempo
stop
Help us to improve Ultimate-Guitar.com Take our survey!
×
First of all; this song is actually played on a 7-string guitar but i tried to figure it 
for a normal guitar, so the intro might not sound like the original, but it fits.
Guitar is in standart tuning

Intro:
e-------|
b-------|
g-3-7-5-|
d-3-7-5-|
a-1-5-3-|
e-------|

Verse(part one):

e-----------------------------------|
b-----------------------------------|
g-0-0-0-2-0-0-0-3-2-0-0-2-0-0-0-2-3-|    Repeat
d-0-0-0-2-0-0-0-3-2-0-0-2-0-0-0-2-3-|
a-0-0-0-0-0-0-0-1-0-0-0-0-0-0-0-0-1-|
e-----------------------------------|
  x x x   x x x     x x   x x x

Verse(part two):

e-----------------------------------|
b-----------------------------------|
g-0-0-0-2-0-0----0-0-0-3-0-0-0------|     Repeat
d-0-0-0-2-0-0----0-0-0-3-0-0-0------|
a-0-0-0-0-0-0----0-0-0-1-0-0-0------|
e-----------------------------------|
  x x x   x x    x x x   x x x

Chorus:

e-------|
b-------|
g-3-7-5-|
d-3-7-5-|
a-1-5-3-|
e-------|

Bridge:


e--12--12--12--0--0-|
b-------------------|
g-------------------|
d-------------------|  Repeat
a-------------------|
e-------------------|


So actually that's it for the whole song.
I don't know how often you have to play each part, but it's easy to figure out.

The Song order is:

Intro
Verse1
Verse1
Verse2
Chorus
Verse1
Verse2
Chorus
Bridge
Verse2
Chorus
Chorus
Chorus
verse1

E-mail me if you have comments or if somethings wrong. And please try to find out how 
intro can be played so it sounds like the original.
This is my first tab so don't be to hard to me.
If anythings wrong with the language or the epelling, excuse me, because I#m german.

E-mail: timothys_special@yahoo.de
Suggest correction
Give kudos to tab author, rate the tab!
1 2 3 4 5
comments
print report bad tab
guest
You may want to rate the tab now too:
select rating
Please do not post tabs as comments. Select "correction" instead!