Oops, an error
Loading. Please wait.

New Revolution Tab

version 1
version 1

Whole song

229 views 1 this week
3 commentsread comments
1 2 3 4 5
x 3
add to favorites
launch autoscroll
font size
0
reset
how to read this tab
guitar tuner
Autoscroll
slow
fast
+/-
esc
set tempo
stop
Help us to improve Ultimate-Guitar.com Take our survey!
×
Author
Difficulty
Tuning
novice
C# G# C# F# A# D#
Dry Cell: New Revolution

Transcribed by: mysticguitar77

Date last modified: January 19, 2011

Tuning: Drop Db (Db,Ab,Db,Gb,Bb,Eb)

Notes: What I'm tabbing is what I covered, nothing more, but this is the basic framework 
for this song.

Riff 1
Eb|-----------------------------------------|
Bb|-----------------------------------------|
Gb|-----------------------------------------|
Db|-14----14----14----14----9---9---9---9---|
Ab|-----------------------------------------|
Db|----12----12----12----12---7---7---7---7-|

Eb|-----------------------------------------|
Bb|-----------------------------------------|
Gb|-----------------------------------------|
Db|-12---12---12---12---11---11---11---11---|
Ab|-----------------------------------------|
Db|----9----9----9----9----9----9----9----9-|

Note: This can be tricky, it's played pretty fast and there's string skips, but I'm 
nearly positive this is how you play it.

Play Riff 1 twice

Riff 2 - Band kicks in
Eb|-----------------------------------------|
Bb|-----------------------------------------|
Gb|-----------------------------------------|
Db|-14-12-14-12-14-12-14-12-9-7-9-7-9-7-9-7-|
Ab|-12-12-12-12-12-12-12-12-7-7-7-7-7-7-7-7-|
Db|-12-12-12-12-12-12-12-12-7-7-7-7-7-7-7-7-|

Eb|-----------------------------------------|
Bb|-----------------------------------------|
Gb|-----------------------------------------|
Db|-12-9-12-9-12-9-12-9-11-9-11-9-11-9-11-9-|
Ab|-9--9-9--9-9--9-9--9-9--9-9--9-9--9-9--9-|
Db|-9--9-9--9-9--9-9--9-9--9-9--9-9--9-9--9-|

Note: Similar to Riff 1 except played power chord style. Could even be 2 guitars: one 
playing Riff 1 with another playing the power chords underneath, but it's easiest just to 
combine the two if that's the case. And it sounds good this way.

Play Riff 2 twice

Riff 3   "Hello again..."
Eb|-------------------------------------------------|
Bb|-------------------------------------------------|
Gb|-------------------------------------------------|
Db|-7/9-9-9-9-x-x-x-x-9-x-9-9\7-7-7-7-x-x-x-x-7-x-7-|
Ab|-x-x-x-x-x-x-x-x-x-x-x-x-x-x-x-x-x-x-x-x-x-x-x-x-|
Db|-7/9-9-9-9-x-x-x-x-9-x-9-9\7-7-7-7-x-x-x-x-7-x-7-|

Eb|--------------------------------------------------------------|
Bb|--------------------------------------------------------------|
Gb|--------------------------------------------------------------|
Db|-7/9-9-9-9-x-x-x-x-9-x-9-9/11-11-11-11-x-x-11/12-12-12-12-x-x-|
Ab|-x-x-x-x-x-x-x-x-x-x-x-x-x-x--x--x--x--x-x-x--x--x--x--x--x-x-|
Db|-7/9-9-9-9-x-x-x-x-9-x-9-9/11-11-11-11-x-x-11/12-12-12-12-x-x-|

Play Riff 3 twice

Riff 4   "Ohhhhhhhhhhh, ohhhhhhhhhhhh..."
Eb|---------------------|
Bb|---------------------|
Gb|---------------------|
Db|-9----7----5----2--0-|
Ab|-9----7----5----2--0-|
Db|-9----7----5----2--0-|

Play Riff 4 twice

Transition
Eb|-----------------|
Bb|-----------------|
Gb|-----------------|
Db|-x-x-x-x-x-x-x-x-|
Ab|-x-x-x-x-x-x-x-x-|
Db|-x-x-x-x-x-x-x-x-|

Riff 5   "This is a new revolution..." (chords only)
Eb|--------------------------------------|
Bb|--------------------------------------|
Gb|--------------------------------------|
Db|-9----7----0----5----9----7----5----7-|
Ab|-9----7----0----5----9----7----5----7-|
Db|-9----7----0----5----9----7----5----7-|

Note: Listen to the song for the strumming pattern.

Riff 6 - after drum fill
Eb|---------------------------------|
Bb|---------------------------------|
Gb|---------------------------------|
Db|-----------------7-7-7-7-7-7-7-7-|
Ab|-7-7-7-7-7-7-7-7-5-5-5-5-5-5-5-5-|
Db|-7-7-7-7-7-7-7-7-5-5-5-5-5-5-5-5-|
    * * * * * * * *

Play Riff 3 twice   "Goodbye again..."
Play Riff 4 twice   "Ohhhhhhhhhhhhhh, ohhhhhhhhhhhhhh..."
Play Riff 6   (after drum fill)
Play Riff 5 twice   "This is a new revolution..."

Riff 7
Eb|-----------------------------------------|
Bb|-----------------------------------------|
Gb|-----------------------------------------|
Db|-11---11---11---11---11---11---11---11---|
Ab|-----------------------------------------|
Db|----9----9----9----9----9----9----9----9-|

Play Riff 7 twice
Play Riff 2 x4   "Ohhhhhhhhhh, you always hide away..."

Riff 8   "Awaaaaaaayyyyyyyy..."
Eb|--------------------|
Bb|--------------------|
Gb|--------------------|
Db|-7-7-7----7\2-2-2-4-|
Ab|-7-7-7----7\2-2-2-4-|
Db|-7-7-7----7\2-2-2-4-|

Play Riff 8 twice
Play Riff 5 twice   "This is a new revolution..."

Ending
Eb|--------------|
Bb|--------------|
Gb|--------------|
Db|-9-9-9-9-9\\\-|
Ab|-9-9-9-9-9\\\-|
Db|-9-9-9-9-9\\\-|

That's all and that's the last of my Dry Cell tabs at least for awhile. This one 
definitely took the longest. Enjoy!
Suggest correction
Give kudos to tab author, rate the tab!
1 2 3 4 5
comments
print report bad tab
3 comments total.
0 reply
mysticguitar77 5,878 Feb 01, 2011 06:07 PM

Hey guys for however that checks out this tab, you can also play the intro like this if it's easier for you:

Eb|------------------------------------------|
Bb|------------------------------------------|
Gb|------------------------------------------|
Db|-14-12-14-12-14-12-14-12--9-7-9-7-9-7-9-7-|
Ab|------------------------------------------|
Db|------------------------------------------|

Eb|------------------------------------------|
Bb|------------------------------------------|
Gb|------------------------------------------|
Db|-12-9-12-9-12-9-12-9--11-9-11-9-11-9-11-9-|
Ab|------------------------------------------|
Db|------------------------------------------|

You are still playing the same note in theory, but in a different octave. I prefer the version I tabbed out before, but you can play it either way and it should sound good.

0 reply
mysticguitar77 5,878 Feb 01, 2011 06:08 PM

*whoever*

not however, my bad.

0 reply
mysticguitar77 5,878 Feb 01, 2011 06:09 PM

View the corrections for an alternate way to play the intro.

guest
You may want to rate the tab now too:
select rating
Wanna post a correction for this tab? Suggest correction