Oops, an error
Loading. Please wait.

Silence Tab

version 1
version 1

Intro

Whole song

241 views 1 this week
1 commentread comment
1 2 3 4 5
3 more votes to show rating
add to favorites
launch autoscroll
font size
0
reset
how to read this tab
guitar tuner
×
Best way to learn
"Silence"
Autoscroll
slow
fast
+/-
esc
set tempo
stop
x----------------------|x2
x----------------------|
x----------------------|
x4---4----4\3---8------|
x--6--6-6--------------|
x----------------------|


x-----------------------------|
x-----------------------------|
x-----------------------------|
x-4---4------4/3--4---4-----8-|
x---6---6--6--------6--6-6----|
x-----------------------------|


x-----------------------------|
x-----------------------------|
x-----------------------------|
x-4---4------4/3--4---4-----8-|
x---6---6--6--------6--6-6----|
x-----------------------------|

x-----------------------------|
x-----------------------------|
x-----------------------------|
x-4---4------4/3--4---4-----8-|
x---6---6--6--------6--6-6----|
x-----------------------------|
Suggest correction
Give kudos to tab author, rate the tab!
1 2 3 4 5
comments
print report bad tab
1 comment total.
0 reply
Kreuger 792 Jan 10, 2011 02:59 PM

Play this a half step lower (DbAbDbGbBbEb) and the chorus chords are

------------|
------------|
------------|
--2-5-0-7---|
--2-5-0-7---|
--2-5-0-7---|

guest
You may want to rate the tab now too:
select rating
Wanna post a correction for this tab? Suggest correction