Oops, an error
Loading. Please wait.

Silence Tab

version 1
version 1

Whole song

218 views 1 this week
no commentswrite comment
1 2 3 4 5
excellent!
x 3
add to favorites
launch autoscroll
font size
0
reset
how to read this tab
guitar tuner
Autoscroll
slow
fast
+/-
esc
set tempo
stop
Help us to improve Ultimate-Guitar.com Take our survey!
×
Author
Difficulty
Tuning
novice
C# G# C# F# A# D#
Dry Cell: Silence

Transcribed by: mysticguitar77

Date last modified: January 18, 2011

Tuning: Drop Db (Db,Ab,Db,Gb,Bb,Eb)

Notes: I'm tabbing what I covered in my YouTube videos which is the basic framework of 
the song, so there will be some random parts missing.

Riff 1 - Guitar 1   (kicks in after bass solo)
Eb|------------------|
Bb|------------------|
Gb|------------------|
Db|-2----5----0----7-|
Ab|-2----5----0----7-|
Db|-2----5----0----7-|

Riff 1 - Guitar 2
Eb|-----------------------------------|
Bb|-----------------------------------|
Gb|-----------------------------------|
Db|-5----5-------5\4--5----5-------9\-|
Ab|---7----7-7-7--------7----7-7-7----|
Db|-----------------------------------|

Play Riff 1 twice

Riff 2 - Both guitars   "I believe I've been hanging by a string..."
Eb|---------------------------------------------|
Bb|---------------------------------------------|
Gb|---------------------------------------------|
Db|-2-2-x--x-x-5-5-x--x-x-0-0-x--x-x-0-0-x--x-x-|
Ab|-2-2-x--x-x-5-5-x--x-x-0-0-x--x-x-0-0-x--x-x-|
Db|-2-2-x--x-x-5-5-x--x-x-0-0-x--x-x-0-0-x--x-x-|

Eb|--------------------------------------------|
Bb|--------------------------------------------|
Gb|--------------------------------------------|
Db|-2-2-x--x-x-5-5-x--x-x-0-0-x--x-x-7-7-7-7\1-|
Ab|-2-2-x--x-x-5-5-x--x-x-0-0-x--x-x-7-7-7-7\1-|
Db|-2-2-x--x-x-5-5-x--x-x-0-0-x--x-x-7-7-7-7\1-|

Play Riff 2 twice

Riff 3   "Suprise my eyes were open..."   (chords only, strumming pattern is easy enough 
to figure out yourselves)
Eb|------------------|
Bb|------------------|
Gb|------------------|
Db|-2----5----0----7-|
Ab|-2----5----0----7-|
Db|-2----5----0----7-|

Eb|------------------|
Bb|------------------|
Gb|------------------|
Db|-2----5----7----3-|
Ab|-2----5----7----3-|
Db|-2----5----7----3-|

Eb|--------------------------------------|
Bb|--------------------------------------|
Gb|--------------------------------------|
Db|-2----5----0----7----2----5----0----7-|
Ab|-2----5----0----7----2----5----0----7-|
Db|-2----5----0----7----2----5----0----7-|

Play Riff 1 twice
Play Riff 2 twice
Play Riff 3   "Suprise my eyes were open..."

Riff 4   "How can this go wrong, take it all from me!" (chords only again)
Eb|--------------------------------------|
Bb|--------------------------------------|
Gb|--------------------------------------|
Db|-2----5----0----7----2----5----0----7-|
Ab|-2----5----0----7----2----5----0----7-|
Db|-2----5----0----7----2----5----0----7-|

Riff 5   "I never meant to cause you pain..."
Eb|------------------------------------------|
Bb|------------------------------------------|
Gb|-5----------------------------------------|
Db|-5----------------------------------------|
Ab|-3--------0h2-2-0h2-2-0h2-0h2-2-0h2-2-0h2-|
Db|----------0h2-2-0h2-2-0h2-0h2-2-0h2-2-0h2-|

Eb|----------------------------------------|
Bb|----------------------------------------|
Gb|-5--------------------------------------|
Db|-5------------------------7-7-10-10-9-9-|
Ab|-3--------0h2-2-0h2-2-0h2-7-7-7--7--7-7-|
Db|----------0h2-2-0h2-2-0h2-7-7-7--7--7-7-|

Eb|-----------------------------------|
Bb|-----------------------------------|
Gb|-5-5-5--5-5--5-5-5--5-5-5--5-5-----|
Db|-5-5-4--5-5--5-5-5--5-5-5--5-5-----|
Ab|-3-3-3--3-3--3-3-3--3-3-3--3-3-0-2-|
Db|-------------------------------0-2-|

(drum solo plus random part I haven't learned)

Transition Build-Up
Eb|-------------------------|
Bb|-------------------------|
Gb|-------------------------|
Db|-------------------------|
Ab|-0-0-0-0-7-7-7-7-7-7-7-7-|
Db|-0-0-0-0-7-7-7-7-7-7-7-7-|
    * * * *

Play Riff 4 twice
Play Riff 1 x4

Ending - Both Guitars
Eb|---|
Bb|---|
Gb|---|
Db|-2-|
Ab|-2-|
Db|-2-|

That's it! "Under The Sun" will be next most likely :)
Suggest correction
Give kudos to tab author, rate the tab!
1 2 3 4 5
comments
print report bad tab
guest
You may want to rate the tab now too:
select rating
Please do not post tabs as comments. Select "correction" instead!