Oops, an error
Loading. Please wait.

Slip Away Tab

version 2
version 2

Whole song

662 views 1 this week
no commentswrite comment
1 2 3 4 5
please rate
add to favorites
launch autoscroll
font size
0
reset
how to read this tab
guitar tuner
Tab Pro tools
  • play this tab
  • loop segment
  • change instrument
  • show fretboard
  • metronome
×
Best way to learn
"Slip Away"
Autoscroll
slow
fast
+/-
esc
set tempo
stop
Contributor
Difficulty
Tuning
novice
D A D G B E
There will be more updates as i listen to the song more and more. . .
     guitar II coming soon

Tuning: drop D (DADGBe)

Intro
Guitar I
     (right after "your best is not good enough")
e|-------------------|---------------------|
B|-------------------|---------------------|
G|-------------------|---------------------|
D|-0-0-0-0-0-0-0-0-0-|-0-0-0-0-0-0-0-0-0-0-|
A|-------------------|-------------0-0-0-0-|
D|-------------------|-------------0-0-0-0-|
  play 3x               play 1x


PreVerse
Guitar I
     ("huaa")
e|-------------------------------------|
B|-------------------------------------|
G|-------------------------------------|
D|-0-0-0-0-0-0-0-0h1-0-0-0-0-0h1h3p1h3-|
A|-0-0-0-0-0-0-0-0h1-0-0-0-0-0h1h3p1h3-|
D|-0-0-0-0-0-0-0-0h1-0-0-0-0-0h1h3p1h3-|
pm . . . . . . . .   . . . . . 
  Play 2x

Verse
Guitar I
  1st("day. . .") - - ("are you")
  2nd time- - - - - - ("want you")
e|-------------------|----------|
B|-------------------|----------|
G|-------------------|----------|
D|-------------------|-0--------|
A|-------------------|-0--------|
D|-0-0-0-0-0-0-0-0-0-|-0--------|
pm . . . . . . . . .
  play 3x             on 4



Chorus
Guitar I
     ("so. . .far. . .gone. . .)
e|-------------------------------------|
B|-------------------------------------|
G|-------------------------------------|
D|-0-0-0-0-0-0-0-0-1-0-0-0-0-0-1h3p1h3-|
A|-0-0-0-0-0-0-0-0-1-0-0-0-0-0-1h3p1h3-|
D|-0-0-0-0-0-0-0-0-1-0-0-0-0-0-1h3p1h3-|
pm . . . . . . . .   . . . . .
     play 4x


After chorus before verse
Guitar I
    ("finally when im at my end. . .")
e|---------------------|
B|---------------------|
G|---------------------|
D|-0-0-0--7-7-7-9-9-9--|
A|-0-0-0--7-7-7-9-9-9--|
D|-0-0-0--7-7-7-9-9-9--|
  play 4x


PreVerse
Guitar I
e|-------------------------------------|
B|-------------------------------------|
G|-------------------------------------|
D|-0-0-0-0-0-0-0-0h1-0-0-0-0-0h1h3p1h3-|
A|-0-0-0-0-0-0-0-0h1-0-0-0-0-0h1h3p1h3-|
D|-0-0-0-0-0-0-0-0h1-0-0-0-0-0h1h3p1h3-|
pm . . . . . . . .   . . . . . 
  Play 2x


Verse
Guitar I
  1st("time . .") - - ("defy")
  2nd time- - - - - - ("slip away")
e|-------------------|----------|
B|-------------------|----------|
G|-------------------|----------|
D|-------------------|-0--------|
A|-------------------|-0--------|
D|-0-0-0-0-0-0-0-0-0-|-0--------|
pm . . . . . . . . .
  play 3x             on 4


PreChorus
Guitar I
     ("so. . .far. . .gone. . .)
e|-------------------------------------|
B|-------------------------------------|
G|-------------------------------------|
D|-0-0-0-0-0-0-0-0h1-0-0-0-0-0h1h3p1h3-|
A|-0-0-0-0-0-0-0-0h1-0-0-0-0-0h1h3p1h3-|
D|-0-0-0-0-0-0-0-0h1-0-0-0-0-0h1h3p1h3-|
pm . . . . . . . .   . . . . . 
  Play 4x

Interlude
??!


Ending
e|--------------------------------------|
B|--------------------------------------|
G|--------------------------------------|
D|-0-0-0-0-0-0-0-0h1-0-0-0-0-0h1h3p1h3\-|
A|-0-0-0-0-0-0-0-0h1-0-0-0-0-0h1h3p1h3\-|
D|-0-0-0-0-0-0-0-0h1-0-0-0-0-0h1h3p1h3\-|
pm . . . . . . . .   . . . . . 
  Play 2x

guitar II coming soon. . .
comments
We did not receive enough feedback on this tab! Please rate:
print report bad tab
1 2 3 4 5
I want to post or [tab]
guest
You may want to rate the tab now too:
select rating
Please do not post tabs as comments. Select "correction" instead!